Johnny Cash - Long-legged Guitar Pickin Man tab


                       Long Legged Guitar Pickin man


----------------0--------------0--------------------------0----------|
----------------2--2-2-2-------2--2-2-2-------------------2--2-2-2---|
----------------2--2-2-2-------2--2-2-2-------------------2--2-2-2---|
----------------2--2-2-2-------2--2-2-2-------------------2--2-2-2---|
-------------0--0-----------0--0----------3/4--3/4---0----0----------|
-0----3/4-------0--------------0--------------------------0----------|

-----------------0-------------0-------------0-----------------------|
-----------------2--2-2-2------2--2-2-2------2--2-2-2----------------|
-----------------2--2-2-2------2--2-2-2------2--2-2-2----------------|
-----------------2--2-2-2------2--2-2-2------2--2-2-2----------------|
--3/4--3/4---0---0----------0--0----------0--0-----------------------|
-----------------0-------------0-------------0-----------------------|

(strumming pattern continues with different chords)

        A
John: Well i'm gonna start out walkin', just you wait and see,

June: Uh-uh guitar picker, you aint leaving without me,
             D
John: Oh you big mouthed woman.

June: You long legged guitar pickin man.

----5--555--5-8-----5-8------------------5------------|
----------------5-8-----5-8-5-8-5-8-5-8---------------|
---------------------------------------------~7~------|
------------------------------------------------------|
------------------------------------------------------|
------------------------------------------------------|

(there's three different ways i like to play this part, this is the intermediate 
the easy and hard versions are below,you can play it however you want)

----5--555--58-----58-----58-----58-------------------5------|
----------------58-----58-----58-----58-5-8-5-8-5-8----------|
---------------------------------------------------------~7~-|
-------------------------------------------------------------|
-------------------------------------------------------------|
-------------------------------------------------------------|


----5--555-5-8--5-8-5-8-5-8--------------5-----------|
-----------------------------5-8-5-8-5-8-------------|
--------------------------------------------~7~------|
-----------------------------------------------------|
-----------------------------------------------------|
-----------------------------------------------------|

      The chords and picking continue throught the song, i dont have the solo yet, but 
working on it. this isn't really spot-on, but its close enough to give you a good idea.
Tap to rate this tab
 
# A B C D E F G H I J K L M N O P Q R S T U V W X Y Z