Johnny Cash - Ghost Riders In The Sky tab

E|-----------------------------------------------------------------------|
B|-----------------------------------------------------10-10-8-10--------|
G|------------5-5--------------------5-(5)-5-7-9-5-9-9------------9-9-9-9|
D|----5h7-7-7-----7-5-5-5----5h7-7-7-------------------------------------|
A|-7------------------7----7---------------------------------------------|
E|-----------------------------------------------------------------------|

E|-------------------------------|   E|----------------------------------|
B|-------------------------------|   B|-5-5-5-8--10-10-10-7/5------------|
G|-------------------------------|   G|---------------------------------5|
D|-7-5---------------5-5---------|x2 D|-----------------------3-(3)-3-3--|
A|-----7-7-5-3-3-5/7-----7-7-5-7-|   A|----------------------------------|
E|-------------------------------|   E|----------------------------------|

E|-------------|
B|-------------|
G|-(5)-5-------|
D|-------7-(7)-|REPEAT THRIUGH SONG
A|-------------|
E|-------------|
Tap to rate this tab
 
# A B C D E F G H I J K L M N O P Q R S T U V W X Y Z