Song name
# A B C D E F G H I J K L M N O P Q R S T U V W X Y Z

Johnny Cash - Folsom Prison Blues tab

e ---7-9p7-10-7---7-9p7-10------7-9p7-10-7---7-9p7-10-7---|
B 8h9----------8h9-----------8h9----------8h9----------9--|
G ------------------------------------------------------9-|
D --------------------------------------------------------|
A --------------------------------------------------------|
E --------------------------------------------------------|

e 5---5---9-----0-0---------2--2---------------------------|
B 22--55--1010--0-0---------0--0---------------------------|
G 22--66--99----1-1---------2--2---------------------------|
D --------------2-2---------1--1---------------------------|
A --------------2-2-0-1-2--2--2--2-2-1---------------------|
E --------------0-0--------------------2b-0----------------|
Tap to rate this tab
 
# A B C D E F G H I J K L M N O P Q R S T U V W X Y Z