Johnny Cash - Ghost Riders In The Sky tab

this song is made by johnny cash ghost riders in the sky
this was made by dustin in joy. i hope this is easy for some, to play

e------------------------------|
b------------------------------|
g------------------------------|
d------------------------------|
a---0-00--2--3-33--0-----------|
E-3------------------3-33--0-3-|


e-------------------------------|
b-------------------------------|
g-------------------------------|
d-----------------0--2-22--0--2-|
a---0-00--2--3-33---------------|
E-3-----------------------------|


e-------------------------------|
b-------------------------------|
g---2-22-0----------------------|
d-2--------2-22-0---------------|
a-----------------3--33-0-------|
E--------------------------3----|

e-------------------------------|
b-------------------------------|
g-------------------------------|
d-------------------------------|
a---------3--3-0-0--------------|
E-1--1--1----------3-0----------|
Tap to rate this tab
 
# A B C D E F G H I J K L M N O P Q R S T U V W X Y Z