Johnny Cash - Katy Too tab

Katy too

Tabbed by: MrModigh

Written by: John R. Cash

(No Capo!)

This is from the Sun-recordings, made in the 50's.
The intro and solo are as played by Luther Perkins.

If you want to play along with the recording, 
you have to tune up your guitar 1/4.
This will match Luther's tuning.


Intro
e|-----------------------------------------------------------------|
b|-----------------------------------------------------------------|
G|-----------------------------------------------------------------|
D|-------2-2-2-0-0-0-0-2-2-2---------------------------------------|
A|---0-4---------------------4-2-0-0-------------------------------|
E|-----------------------------------------------------------------|


Verse 1
    A             D
I'm not the goin' steady kind
  E            A
I miss 'em all all the time
              D
I told Annie I'll be true
    E                    A
But I still think about Katy too
         D
Katy too Katy too
E                   A
I still think about Katy too


Verse 2
   A                   D
If you should see Miss Mary Ann
     E                 A
Just tell her I'm her lovin' man
                D
Give my love to Jane and Sue
    E                A
But don't forget ol' Katy too
         D
Katy too Katy too
E                A
Don't forget ol' Katy too


Solo
e|------------------------------------------------------------------|
b|------------------------------------------------------------------|
G|------------------------------------------------------------------|
D|-----2-2-2-0-0-0-0-2-2-2--------------2-2-2-0-0-0-0-2-2-2---------|
A|-0-4---------------------4-2-0-0--0-4---------------------4-2-0-0-|
E|------------------------------------------------------------------|

Verse 3
I like Saddie's chicken stew
And Susie's good at pitchin' woo
I like Mary's barbecue
But I still like ol' Katy too
 
Katy too Katy too
I still like ol' Katy too


Verse 4
Now girls I'm not the flirty kind
But I just can't make up my mind
I like to marry all of you
But I still miss ol' Katy too
 
Katy too Katy too
I still miss ol' Katy too


Solo


Verse 5 
To all the girls I make this toast
I love you everyone the most
But don't ask me to say I do
'Cause I still miss ol' Katy too
 
Katy too Katy too
I still miss ol' Katy too


Verse 6
Cupid you've been good to me
I've got more girls than I can see
But if you give me all but two
Then let's squeeze in ol' Katy too
 
Katy too Katy too
Let's squeeze in ol' Katy too
Tap to rate this tab
 
# A B C D E F G H I J K L M N O P Q R S T U V W X Y Z