Johnny Cash - San Quentin tab

These tabs are from Johnny Cash San Quentin at Folsom. These are my first tabs so 
if there is a problem, please let me know.
Jeremi

Intro:
|---------------------------------------------------------------------|
|---------------------------------------------------------------------|
|---------------------------------------------------------------------|
|--------------------1-------------------------1----------------------|
|------2--22-4--2-4-------------------2--22-4-----4-2-----------------|
|--2-----------------------------2------------------------------------|



Solo:
|---------------------------------------------------------------------|
|---------------------------------------------------------------------|
|---------------------------------------------------------------------|
|---------------------1-------------------------1---------------------|
|------2--222-4--2-4------------------2--222-4-----4-2----------------|
|--2-----------------------------2------------------------------------|

|---------------------------------------------------------------------|
|---------------------------------------------------------------------|
|------------1-1------------------------------------------------------|
|---1-2-222-------4-2-1-----------------------1---------1-------------|
|-4----------------------------------2-22-2-4-----4-2-------4-2-------|
|---------------------------------------------------------------------|
Tap to rate this tab
 
# A B C D E F G H I J K L M N O P Q R S T U V W X Y Z