Johnny Cash - Jackson tab

Artist: Johnny Cash
Song: Jackson


 Intro
  E S S S S S S E S S S S S S E S S S S S S E S S S S S S
|------------------------------------------------------------|
|---------------1-----------0---------------1-----------0----|
|-----0-------0-0---0-0h2-2-------0-------0-0---0-0h2-2------|
|---2---0h2-2---2-2-------------2---0h2-2---2-2--------------|
|-3---------------------------3------------------------------|
|------------------------------------------------------------|


  E S S S S S S E S S S S S S E S S S S S S E E E E
|------------------------------------------------------|
|---------------1-----------0---------------1----------|
|-----0-------0-0---0-0h2-2-------0-------0-0----------|
|---2---0h2-2---2-2-------------2---0h2-2---2----------|
|-3---------------------------3-----------------0-2----|
|---------------------------------------------3--------|


  E S S E S S E S S E S S E S S E S S E S S E S S
|----------------------------------------------------|
|----------------------------------------------------|
|-----0-----0-----0-----0-----0-----0-----0-----0----|
|---2-----2-----2-----2-----2-----2-----2-----2------|
|-3-----------3-----------3-----------3--------------|
|-------3-----------3-----------3-----------3--------|


  E S S E S S E S S E S S E S S E S S E E E E
|------------------------------------------------|
|------------------------------------------------|
|-----0-----0-----0-----0-----0-----0------------|
|---2-----2-----2-----2-----2-----2--------------|
|-3-----------3-----------3-----------3---0-2----|
|-------3-----------3-----------3-------3--------|


 Verse
  E S S E S S E S S E S S E S S E S S E S S E S S
|----------------------------------------------------|
|----------------------------------------------------|
|-----0-----0-----0-----0-----0-----0-----0-----0----|
|---2-----2-----2-----2-----2-----2-----2-----2------|
|-3-----------3-----------3-----------3--------------|
|-------3-----------3-----------3-----------3--------|


  E S S E S S E S S E S S E S S E S S E E E E
|------------------------------------------------|
|------------------------------------------------|
|-----0-----0-----0-----0-----0-----0------------|
|---2-----2-----2-----2-----2-----2--------------|
|-3-----------3-----------3-----------3---0-2----|
|-------3-----------3-----------3-------3--------|


  E S S E S S E S S E S S E S S E S S E S S E S S
|----------------------------------------------------|
|----------------------------------------------------|
|-----0-----0-----0-----0-----0-----0-----0-----0----|
|---2-----2-----2-----2-----2-----2-----2-----2------|
|-3-----------3-----------3-----------3--------------|
|-------3-----------3-----------3-----------3--------|


  E E E E E E E E E E E E E E E E E S S E S S E S S E S S
|---0---0---0---0---0----------------------------------------|
|---1---1---1---1---1----------------------------------------|
|---3---3---3---3---3-----------------2-----2-----2-----2----|
|---2---2---2---2---2---------------3-----3-----3-----3------|
|-3-3---3---3---3---3---3-3-1-0---------3-----------3--------|
|-------------------------------3-1-----------1--------------|


  E S S E S S E S S E S S E S S S S S S E S S S S S S
|--------------------------------------------------------|
|---------------------------------------1-----------0----|
|-----2-----2-----2-----2-----0-------0-0---0-0h2-2------|
|---3-----3-----3-----3-----2---0h2-2---2-2--------------|
|-------3-----------3-----3------------------------------|
|-1-----------1------------------------------------------|


  E S S S S S S E E E E E S S E S S E E E E E S S S S S S
|------------------------------------------------------------|
|------------------------------------------------------------|
|-----0-------0-------------2-----2--------------------------|
|---2---0h2-2-------------3-----3---------------0-------0----|
|-3-------------3-1-0---------3---------------2---0h2-2------|
|---------------------3-1-----------1-0-1-2-3----------------|


  E S S S S S S E S S S S S S E S S S S S S E S S S S S S
|------------------------------------------------------------|
|-----------------------------1-----------0------------------|
|-0-----------0-----0-------0-0---0-0h2-2-------0-------0----|
|-0---0-0h2-2-----2---0h2-2---2-2-------------2---0h2-2------|
|-2-2-----------3---------------------------3----------------|
|------------------------------------------------------------|


  E S S S S S S
|------------------|
|-1-----------0----|
|-0---0-0h2-2------|
|-2-2--------------|
|------------------|
|------------------|


www.guitarstars.biz
Tap to rate this tab
 
# A B C D E F G H I J K L M N O P Q R S T U V W X Y Z