Song name
# A B C D E F G H I J K L M N O P Q R S T U V W X Y Z

Johnny Cash - God Will Cut You Down tab

This isn't 100% perfect but it's my variation. Just have fun with it.
Tabbed by: John Mathias



  Intro
                      * Play around in this key it's not what is exactly written but you 
can get it if you listen            to the song

e -----------------|---------------|---------------|--------------------|
B -----------------|---------------|---------------|--------------------|
G -------3---------|---------3-----|--------3------|---------3----------|
D ----3------------|-1---3---------|----3----------|-----3--------------|   x4
A -1---------------|---------------|-1-------------|-1------------------|
E -----------------|---------------|---------------|--------------------|

Chorus

                                                                * Third chord is just an 
octave up can be played if wanted

e -----------------|---------------|----------------|--------------------|
B -----------------|---------------|----------------|--------------------|
G -3---------------|---6-----------|------(10)------|---3----------------|
D -3---------------|---6-----------|---3--(8)-------|---3----------------|  x2
A -1---------------|---4-----------|---3--(8)-------|---1----------------|
E -----------------|---------------|----1-----------|--------------------|



Simple but good song
Tap to rate this tab
# A B C D E F G H I J K L M N O P Q R S T U V W X Y Z