Song name
# A B C D E F G H I J K L M N O P Q R S T U V W X Y Z

Johnny Cash - Heroes In Black And White tab

Heroes in black and white
Johnny cash


As you can listen here : http://www.youtube.com/watch?v=uNj6oXxeKWM


All the song is :
G Em C D


All paragraphs begins and ends with a G, for each paragraph there's twice the pattern, wich means:
G Em C D
G Em C D G (end of a verse, then next verse, start on another G)



When I was young, I'm thinkin' 'bout what
Life would be in black and white, playing on our old TV
You never failed me, you were all I needed to know
On your white horse, you were my heroe
All that lady, girl of my childhood dreams,
the guy in black was always chasing her it seems,
but I never worried vertue triumph in the end,
and now I ?????? you way back then


All those movies in black and white
it was easy to tell the wrong from right,
when the bad guy loses in the end
and the good guy win the lady's hand,
we still need you if the truth were told
the color's fine and they improved the tone
but I'd rather get the ending right,
we still need heroes, heroes in black and white


Now I'm older and the world is a different place to see,
the black and white looks a little grey to me,
and I have changed, cause there has been some compromised,
and the lady looks a little sad but wise,
late at night, far past the news ATM,
they're on the re-runs riding for the truth again,
sometimes I see you and I'm sure it's time you win the fight,
I still need heroes, heroes in black and white


All those movies in black and white
it was easy to tell the wrong from right,
when the bad guy loses in the end
and the good guy win the lady's hand,
we still need you if the truth were told
the color's fine and they improved the tone
but I'd rather get the ending right,
we still need heroes


  I            G                 I          Em                 I             C
e-----3-3-3---3-3-3---3-3-3---------0-0-0---0-0-0---0-0-0---------0-0-0---0-0-0---0-0-0--|
B-----3-3-3---3-3-3---3-3-3---------0-0-0---0-0-0---0-0-0---------1-1-1---1-1-1---1-1-1--|
G-----0-0-0---0-0-0---0-0-0---------0-0-0---0-0-0---0-0-0---------0-0-0---0-0-0---0-0-0--|
D-----0-0-0---0-0-0---0-0-0-0>2-0---2-2-2---2-2-2---2-2-2---------2-2-2-2-2-2-2---2-2-2--|
A-----2-2-2-2-2-2-2---2-2-2-------2-2-2-2---2-2-2-2-2-2-2-0>2-0-3-3-3-3---3-3-3-3-3-3-3--|
E---3-3-3-3---3-3-3-3-3-3-3---------0-0-0-0-0-0-0---0-0-0--------------------------------|


(--> C)   I            D                I   -->G
e------------2-2-2---2-2-2---2-2-2-------------|
B------------3-3-3---3-3-3---3-3-3-------------|
G------------2-2-2---2-2-2---2-2-2-------------|
D----0>2-0-0-0-0-0---0-0-0-0-0-0-0-0>2-0-------|
A------------------0---------------------------|
E----------------------------------------3-----|




Sorry for the eventuels writing mistakes, I transcripted the song myself from ear... ^^'
Tap to rate this tab
# A B C D E F G H I J K L M N O P Q R S T U V W X Y Z