Song name
# A B C D E F G H I J K L M N O P Q R S T U V W X Y Z

Johnny Cash - I Still Miss Someone tab

-----------------------------------------------------------------------------
        I Still Miss Someone - Johnny Cash and the Tennessee Three
-------------------------------------------------------------------------------
Standard tuning (440hz)
--Capo first fret


Intro:

E|---------------------------------------------------------------------------|
B|---------------------------------------------------------------------------|
G|---------------------------------------------------------------------------|
D|--------0-0----------------------------------------------------------------|
A|--0-2-4-----4---0---0---0---0---0------------------------------------------|
E|--------------0---0---0---0---0--------------------------------------------|

Verse One: At my door...
E|---------------------------------------------------------------------------|
B|---------------------------------------------------------------------------|
G|---------------------------------------------------------------------------|
D|-----0---0-----------0-----0-----------------------------------------------|
A|-0-----0------2---2-----0--------2---0----0---0----------------------------|
E|---0-------0----0-------------0---------0---0---0----repeat x4-------------|

Chorus: Though I never...
E|---------------------------------------------------------------------------|
B|---------------------------------------------------------------------------|
G|---------------------------------------------------------------------------|
D|---0---0-------------------------------------------------------------------|
A|-----0-------2---0-----0---------------------------------------------------|
E|----------0---------0------0-------repeat x4-------------------------------|

Chorus: I wonder if she's sorry...
E|---------------------------------------------------------------------------|
B|---------------------------------------------------------------------------|
G|---------------------------------------------------------------------------|
D|-----0---0-----------0-----0-----------------------------------------------|
A|-0-----0------2---2-----0--------2---0----0---0----------------------------|
E|---0-------0----0-------------0---------0---0---0----repeat x2-------------

Solo:
E|---------------------------------------------------------------------------|
B|---------------------------------------------------------------------------|
G|---------------------------------------------------------------------------|
D|----------0-0-----------------0-0------------------------------------------|
A|--0-0-2-4-----4---0---0-0-2-4-----4---0---0--------------------------------|
E|----------------0---0---------------0---0---0------------------------------|

Chorus: Though I never...
E|---------------------------------------------------------------------------|
B|---------------------------------------------------------------------------|
G|---------------------------------------------------------------------------|
D|---0---0-------------------------------------------------------------------|
A|-----0-------2---0-----0---------------------------------------------------|
E|----------0---------0------0-------repeat x4-------------------------------|

Chorus: I wonder if she's sorry...
E|---------------------------------------------------------------------------|
B|---------------------------------------------------------------------------|
G|---------------------------------------------------------------------------|
D|-----0---0-----------0-----0-----------------------------------------------|
A|-0-----0------2---2-----0--------2---0----0---0----------------------------|
E|---0-------0----0-------------0---------0---0---0----repeat x2-------------

Outro:
E|---------------------------------------------------------------------------|
B|---------------------------------------------------------------------------|
G|---------------------------------------------------------------------------|
D|---------------------------------------------------------------------------|
A|---0-------2-4-------------------------------------------------------------|
E|------0-0------0-----------------------------------------------------------|
Tap to rate this tab
 
# A B C D E F G H I J K L M N O P Q R S T U V W X Y Z