Song name
# A B C D E F G H I J K L M N O P Q R S T U V W X Y Z

Johnny Cash - Desperado Acoustic tab

Desperado by Johnny Cash

Capo on 2nd fret

arranged for acoustic guitar by sateliteblues


¦___________________________Intro_____________________________________________¦
---------------------------------------------------0---------------------------|
-0-3-0-5---3-0------------------------------0--3-0-----3---0-0-----------------|
-0-----4-------0-------0-------0-2----0------------------4---2--2--0h2---------|
-5-----3----------2-------2------1---------------------------------------0-----|
------------------3--------------3-------0-------------------0-----------------|
--------------------------------------------3------0---------------------------|


¦____> repeat
---------------------------------------------------------0---------------------|
-------------------0----0---------------------------0--3-----3---0-0-----------|
-2h4--2--0-------0--------2-0------0-----2---0------0----0-----4---2-2--0h2----|
---------------0---3----------0-2-----2--1------0---0----2------------------0--|
--------------------------------3--------3--------0----------------0-----------|
-----------3----------------------------------------3--------------------------|


------------------------------------------------------0------------------------|
-2h4-2-0-3----------0----------------------------0-3-----3----0---0------------|
------------0---------2-0-----0-----2---0--------0----0----4----2---2-0--------|
-----------0------3-------0-2----2--1---------0--0----2---------2---0----------|
----------------------------3-------3----------0----------------0--------------|
-------3------321--------------------------------3-----------------------------|


-----------3--------------3.-------3-----------0---------0------------------0----|
--------0----------3------0------0----3---3----------3--------------------0---3--|
-------0----------2-----0-0----0------4---4--------0-----------0--------0--------|
-----0----------0------------2----------4---4--2-2-----------0--------2----------|
--------------------------------------2--------3---------------------------------|
-3------------2-----------0--------------------------------3------320------------|


----------------------------3----------------3------3h5-3-----------0-----0-2--|
-0---------1---3-0--------0------------3-----0-----------------3---------------|
---------0--------------0------------2-------0----0---------------------0------|
-----0-2--------------0------------0-------0----2-----------4-----0-2-2--------|
---3-----------------------------0------------------------2---------3----------|
--------------------3----------2-------------0---------------------------------|


¦ Ending of Verse 1+3                                            ______> repeat¦
-3-0------------------------0---------------------------------------------------|
-------3-0----------------0---3---2-----0---2--3------3----3--------------------|
------------0-----------0----------------------0----0------2--------------------|
----------------------2------------------------0--4--------0--------------------|
-------------------------------------0------------------------------------------|
-----3------------320-----------------------------------------------------------|


¦ Ending of Verse 2+4
                   7x      1x   3x   1x
-3-0----------------0------2----3----2------------------------------------------|
-------3-0----------2------3----3----3------------------------------------------|
------------0-------0------2----2----2------------------------------------------|
-------------0------2------0----0----0------------------------------------------|
--------------------0-----------------------------------------------------------|
-----3--------------------------------------------------------------------------|


¦Finale after ending of verse 4
----------------------------------------------------------------0----------0--3-|
------------------0----0---------------------------0--3-3---------3-3h5-3--5--5-|
-2h4--2--0------0--------2-0------0-----2---0------0------0-----0----------0--0-|
--------------0---3----------0-2-----2--1------0---0--------0---3----------5--5-|
-------------------------------3--------3--------0------------------------------|
-----------3---------------------------------------3----------------------------|



-3-----5-3--3h5-3---7-7-7------5-3----3-----------------3--3--------------------|
---0---4-4----------0-----0----5-5--5---5---3-3-3------3---3--------------------|
-----0--------------7-------0--0-0----------2h4-2-----0----0--------------------|
-----------------------------------------------------0-----0--------------------|
----------------------------------------------------2------2--------------------|
---------------------------------------------------3-------3--------------------|
Tap to rate this tab
# A B C D E F G H I J K L M N O P Q R S T U V W X Y Z