Song name
# A B C D E F G H I J K L M N O P Q R S T U V W X Y Z

Johnny Cash - Boy Named Sue tab

 Boy Named Sue
Shel Silverstein


e-------------------|------------------|------------------------|
B----3---3---3---3--|---8---8---8---8--|----10---10----10---10--|
G----3---3---3---3--|---8---8---8---8--|----10---10----10---10--|
D----3---3---3---3--|---8---8---8---8--|----10---10----10---10--|
A--1-------1--------|-6-------6--------|-8-----------8----------|
E------1-------1----|-----6-------6----|-------8----------8-----|

e-------------------|
B----3---3---3---3--|
G----3---3---3---3--|Repeat for the whole song
D----3---3---3---3--|
A--1-------1--------|
E------1-------1----|
Tap to rate this tab
 
# A B C D E F G H I J K L M N O P Q R S T U V W X Y Z