Song name
# A B C D E F G H I J K L M N O P Q R S T U V W X Y Z

Johnny Cash - Ghost Riders In The Sky tab

I've seen a lot of the tabs for this song on here, but most of the solo's don't sound right.
This is how I think the solo is. Capo on the first fret or tune up half a step,
which would just be weird. It's kind of hard to get the timing right in this song just 
by looking at the tab. You really have to listen to the solo while reading this tab, or timing
will be off and the tab won't sound right.

e|-------------------------------------------------------------------------|
B|-------------------------------------------------------------------------|
G|-------------------------------------------------------------------------|
D|-----------------------------------------------0-2--2-2p0--0h2~~~~-------|
A|---0-00-2-3-33-0-------------------0-00-2-3-33-----------3---------------|
E|-0---------------3-33--0--3~~~~--0---------------------------------------|



e|-------------------------------------------------------------------------|
B|-------------------------------------------------------------------------|
G|-----2--2--0-2p0---------------------------------------------------------|
D|-2-2-------------2--0h2*--0h2*-2-----------------------------------------|
A|--------------------------------3^-0-------------3--3*3~~~~3-0-0---0~~~~-|
E|----------------------------------------0-1~~1-1-----------------3^------|
Tap to rate this tab
# A B C D E F G H I J K L M N O P Q R S T U V W X Y Z