Song name
# A B C D E F G H I J K L M N O P Q R S T U V W X Y Z

Johnny Cash - Im So Lonesome I Could Cry tab

e|-0-3-3-0--0----------------------------------------------------------------------|
B|---------3--3-1--------5----5---5----------5------5-----------5/6-6-66-6-8-5-----|
G|----------------0---------5---5-----5----5----5-----5------------------------5---|
D|---------------------------------------5---------------5-55-5--------------------|
A|------------------3--------------------------------------------------------------|
E|---------------------------------------------------------------------------------|


e|-----------------------------------------------------------------------|
B|--5--88--5--3--5--3----------------------------------------------------|
G|----------------------5------------------------------------------------|
D|-------------------------5---------------------------------------------|
A|----------------------------3------------------------------------------|
E|-----------------------------------------------------------------------|
Tap to rate this tab
 
# A B C D E F G H I J K L M N O P Q R S T U V W X Y Z