Song name
# A B C D E F G H I J K L M N O P Q R S T U V W X Y Z

Johnny Cash - Heart Of Gold tab

Johnny Cash & John Frusciante-Heart of gold
Tabbed by Tim Van de Voorde
Intro (2x)
Gm F Gm 
E|---------
B|--------- Play this after the last Gm chord.
G|---------
D|-----3---
A|-3h5---5-
E|---------


Verse
Gm Eb F Bb (2x)


Chorus
Gm Bb Eb
E|----------------------------
B|-15b17-15-13-11-13----13b15- 
G|-------------------12-------
D|----------------------------
A|----------------------------
E|----------------------------

1st solo
E|-------------------------------------------------------------
B|-15b17-15-13-11-13b15r13-11-10h11-11-10h11p10----------------
G|----------------------------------------------12-------10----
D|-------------------------------------------------10h12----12-
A|-------------------------------------------------------------
E|-------------------------------------------------------------

E|-------------------------------------------------
B|-------------------------------------------------
G|---------------10--------------------------------
D|-8/10-8--10/12----12\10-8--8/10-8-8h10p8-7h8p7---
A|-----------------------------------------------8-
E|-------------------------------------------------

E|---------------------------------------------------
B|-13b15--13b15r13-11-13b15-15r13-11-10-13-11--------
G|---------------------------------------------10----
D|------------------------------------------------12-
A|---------------------------------------------------
E|---------------------------------------------------

E|----------------------------
B|-11-11-11-10----------10----
G|-------------12-10-10----12-
D|----------------------------
A|----------------------------
E|----------------------------	


Verse
Gm Eb F Bb (2x)


Chorus
Gm Bb Eb
E|----------------
B|-15b17r15-13-11-
G|----------------
D|----------------
A|----------------
E|----------------


2nd solo
E|------------------------13----------------------10-------------
B|-15b17r15-13-11---13b15----13b15r13-11-13-10-11----11-10-10h11-
G|---------------------------------------------------------------
D|---------------------------------------------------------------
A|---------------------------------------------------------------
E|---------------------------------------------------------------

E|-------15-----15b17--15b17-13-15-13h15p13----13b15r13----------
B|-15b17----15------------------------------15----------15-13----
G|------------------------------------------------------------15-
D|---------------------------------------------------------------
A|---------------------------------------------------------------
E|---------------------------------------------------------------

E|-13-10--13-10--13-13b15r13-10-----------------------------------
B|------------------------------15b17r15--15b17r15----15b17r15----
G|-------------------------------------------------15----------15-
D|----------------------------------------------------------------
A|----------------------------------------------------------------
E|----------------------------------------------------------------

E|--------------------------------------------
B|-------15-----------------------------------
G|-14h15----15-15-14h15p14-10-10--------------
D|-------------------------------12--10h12-12-
A|--------------------------------------------
E|--------------------------------------------

E|-------------------------------
B|-------------------------------
G|-14-14-14-12-10----10-12b14-12-
D|----------------12-------------
A|-------------------------------
E|-------------------------------


Chorus
Gm F Gm
Gm Bb Eb

End on Bb

~Tabbed by Tim Van de Voorde~
Tap to rate this tab
# A B C D E F G H I J K L M N O P Q R S T U V W X Y Z