Song name
# A B C D E F G H I J K L M N O P Q R S T U V W X Y Z

Johnny Cash - Cocaine Blues tab

-------------------------------------------------------------------------------
			     Cocaine Blues - Johnny Cash
-------------------------------------------------------------------------------
Tabbed by: BADHACKER
Email: d_malakian_69@hotmail.com

Tuning:EBGDAE

Intro

e|---------------------|
B|---------------------|
G|---------------------|
D|---------------------|
A|-------------3--4----|
E|----4----6-----------|

Verse:

Play with Palm Muting and a country feel and rythm

Early one mornin while makin'...
e|---------------------------------------------------------------------------|
B|---------------------------------------------------------------------------|
G|---------------------------------------------------------------------------|
D|---------------------------------------------------------------------------|
A|-----444------------444------------444----------444---------444---------444|
E|----------444------------444-----------444----------444----------444-------|

                     I went right home and I went to bed...
e|---------------------------------------------------------------------------|
B|---------------------------------------------------------------------------|
G|---------------------------------------------------------------------------|
D|---------------------------------------------------------------------------|
A|-----------333------------333-----------333------------------3--4----------|
E|---444-------------444----------444----------444-------4--6----------------|

Each verse has that rythm part is the same as the bass guitar.

===============================================================================
Tap to rate this tab
# A B C D E F G H I J K L M N O P Q R S T U V W X Y Z