Song name
# A B C D E F G H I J K L M N O P Q R S T U V W X Y Z

Johnny Cash - Wreck Of The Ol 97 tab

Ok heres how i play old 97 and i've only just worked it out whilst sitting here, this is 
Version played by Carl pekins at san quentin.

Standard Tunning

Intro:
----------------------------------------------------|
----------------------------------------------------|
----------------------------------------------------|
----------------------------------------3--3--3--3--|
-7--8--10-10-10--7--8--7--5--3--3--3--3--3--3--3--3-|
-------------------------------3--3--3--3-----------|

Solo:
-------------------------------------------------------------------------|
-------------------------------------------------------------------------|
-------------------------------------------------------------------------|
----------------------------------7h10--7--5-5--7--10--12--10--9-12-9-12-|
-7--8--10-10-10--7--3--5--7--8-8-8---------------------------------------|
-------------------------------------------------------------------------|

------------------------------------------------------------------------|
------------------------------------------------------------------------|
------------------------------------------------------------------------|
9--7--5--7--9-10-10--7--5-3-3-3--7h10--7--5-5--2p0-2p0------------------|
-------------------------------------------------------3----------------|
------------------------------------------------------------------------|
Tap to rate this tab
# A B C D E F G H I J K L M N O P Q R S T U V W X Y Z