Song name
# A B C D E F G H I J K L M N O P Q R S T U V W X Y Z

Johnny Cash - Kiefer tab

E-2-----0-----0------|
B-2-----0-----0------|
G-2-----0-----0------|
D-2-----0-----0------|
A-0-----0-----0------|
E-0-----2-----2------|


Repeat 8 times
E--------------------7--7----------|
A-9--9--7---7--9--7--------9--7----|
D----------9---------------------9-|
G----------------------------------|
B----------------------------------|
E----------------------------------|
Tap to rate this tab
# A B C D E F G H I J K L M N O P Q R S T U V W X Y Z