Song name
# A B C D E F G H I J K L M N O P Q R S T U V W X Y Z

Johnny Cash - Cry Cry Cry tab

Ok, when playing any luther perkins (lead guitarist for johnny cash) lick, you gotta use 
muting. Basically, to get the perkins tone, position you`re picking hand over the 
near the bridge, and pluck along.

Here we go.


Intro: 1x
e:-------------------------------|
B:-------------------------------|
G:----------7-10-7~--------------|
D:------7-8~----------7---7------|
A:-8-10------------10---8---10-8-|
E:-------------------------------|


Verse (lick A):

e:-----
B:-----
G:-----
D:---10
A:-8---
E:----- (10x)

e:-------------|
B:-------------|
G:-------12----|
D:----12----10-|
A:-10----------|
E:-------------| (1x)

e:-----
B:-----
G:-----
D:---10
A:-8---
E:----- (4x)

e:-----------------|
B:-----------------|
G:---10---10----12-|
D:-8----8----10----|
A:-----------------|
E:-----------------| (1x)


Chorus:

e:-----
B:-----
G:-----
D:---10
A:-8---
E:----- (4x)


e:-----------|
B:-----------|
G:---10---10-|
D:-8----8----|
A:-----------|
E:-----------| (1x)


e:-----
B:-----
G:-----
D:---10
A:-8---
E:----- (2x)


e:-------------|
B:-------------|
G:-12----12----|
D:----10----10-|
A:-------------|
E:-------------|


Solo:

e:-----------|
B:-----------|
G:-----------|
D:---------7-|
A:-8-10-10---|
E:-----------| (4x)

e:-----------|
B:-----------|
G:---------7-|
D:-8-10-10---|
A:-----------|
E:-----------| (4x)

e:------------|
B:------------|
G:------------|
D:---------7~-|
A:-8-10-10----|
E:------------| (4x)

e:-----------------------|
B:-----------------------|
G:------10---------------|
D:10-11-----11--10-------|
A:------------------10b--|
E:---------------------8-|

The End.
Tap to rate this tab
# A B C D E F G H I J K L M N O P Q R S T U V W X Y Z