Song name
# A B C D E F G H I J K L M N O P Q R S T U V W X Y Z

Johnny Cash - One Peace At A Time tab

Help us improve GuitareTab! Take a short survey!
|-----------------------------------------|
|-----------------------------------------|
|-----------------------------------------|
|-----------------------------------------|                                 
|-----2-4-5-5-4-2-----------2-4-5-5-4-2---|
|-0-4-------------4-----0-4-------------4-|

|-----------------------------------------|
|-----------------------------------------|
|-----------------------------------------|
|-----2-4-5-5-4-2-----------2-4-5-5-4-2---|
|-0-4-------------4-----0-4-------------4-|
|-----------------------------------------|

|-----------------------------------------|
|-----------------------------------------|
|-----------------------------------------|
|-----------------------------------------|
|-----2-4-5-5-4-2----------2-4-5-5-4-2----|
|-0-4-------------4----0-4-------------4--|
Related for One Peace At A Time tab