Song name
# A B C D E F G H I J K L M N O P Q R S T U V W X Y Z

Johnny Cash - Gods Gonna Cut You Down tab

   Tabed by : Jamie T4yor



    There is no garante this is perfect it is my first tab an something
    that i have made up that i think sounds slightly right let me know what
    you think. 

    Capo - 1st fret

        
    E -----------------------------------------------------------------|
    B ----1----1----1----1----1----1----1----1----1----1----1----1----1|
    G ------2---------2---------2---------2---------2---------2--------|
    D --2--------2---------2---------2---------2---------2---------2---|
    A -----------------------------------------------------------------|
    E -----------------------------------------------------------------|

    Continue through Verses ^

   
    First part of the chorus (below lyrics) continue above tab!!!

    Go and tell that long tongue liar, 
    Go and tell that midnight rider,
    Tell the rambler, the gambler, the backbiter

    
    Second part of chorus (below lyrics) use tab above in time with lyrics,
    listen to the song to see what i mean.

    Tell the rambler, the gambler, the backbiter,
    Tell 'em that God's gonna cut 'em down.
    Tell 'em that God's gonna cut 'em down.


    E -------------------------------------------------------------------|
    B ---1---1---1---1---1---1---1---1---1---1---1-----------------------|
    G -------------------------------------------------------------------|
    D -------------------------------------------------------------------|
    A -3---0-------0---3---0-------0---0---0---0-------------------------|
    E ---------3---------------3-----------------------------------------|

    After this tab continue staright onto the Verse tab !!


Tap to rate this tab
 
# A B C D E F G H I J K L M N O P Q R S T U V W X Y Z