Song name
# A B C D E F G H I J K L M N O P Q R S T U V W X Y Z

Johnny Cash - Luthers Boogie tab

The real version, the low and high-I play it low high low, and then a lil' ending i 
i double low-high-low to low-high-low-low-high-low)

LOW:

e|--------------------------------------------------|
B|--------------------------------------------------|
G|--------------------------------------------------|
D|--------4--5-6-7-6-7------------------------------|
A|--5--5--------------------------------------------|
E|--------------------------------------------------|
Play Above 4 Times

e|-------------------------------------------------|
B|-------------------------------------------------|
G|---------4--5---6-7-6-7--------------------------|
D|---5--5------------------------------------------|
A|-------------------------------------------------|
E|-------------------------------------------------|
Play Above Two Times

e|---------------------------------------------------|
B|---------------------------------------------------|
G|---------------------------------------------------|
D|---------4--5--6-7-6-7-----------------------------|
A|---5--5--------------------------------------------|
E|---------------------------------------------------|
Play Above Two Times

e|---------------------------------------------------|
B|---------------------------------------------------|
G|---------------------------------------------------|
D|---------------------------------------------------|
A|--------4--5--6-7-6-7------------------------------|
E|--5--5---------------------------------------------|
Play Above Two Times

e|------------------------------------------------|
B|------------------------------------------------|
G|------------------------------------------------|
D|--------4--5--6-7-6-7-5~~~~~~~~-----------------|
A|--5--5------------------------------------------|
E|------------------------------------------------|
Play Above One Time

HIGH:

e|-------------3-5-3-5-----------------------------|
B|-------5--6--------------------------------------|
G|--5--5-------------------------------------------|
D|-------------------------------------------------|
A|-------------------------------------------------|
E|-------------------------------------------------|
Play Above Four Times

e|-------5--6--7-8-7-8-------------------------------|
B|--6--6---------------------------------------------|
G|---------------------------------------------------|
D|---------------------------------------------------|
A|---------------------------------------------------|
E|---------------------------------------------------|
Play Above Two Times

e|--------------3-5-3-5----------------------------|
B|--------5--6-------------------------------------|
G|--5--5-------------------------------------------|
D|-------------------------------------------------|
A|-------------------------------------------------|
E|-------------------------------------------------|
Play Above Two Times

e|--------7--8--9-10-9-10------------------------------|
B|--8--8-----------------------------------------------|
G|-----------------------------------------------------|
D|-----------------------------------------------------|
A|-----------------------------------------------------|
E|-----------------------------------------------------|
Play Above Two Times

e|--------------3-5-3-5------------------------------------|
B|--------5--6---------------------------------------------|
G|--5--5-----------------5~~~~~~~~~------------------------|
D|---------------------------------------------------------|
A|---------------------------------------------------------|
E|---------------------------------------------------------|
Play Above One Time

SPECIAL ENDING FOR EITHER LOW OR HIGH:
                   C
e|-----------------0------------------------------|
B|-----------------1------------------------------|
G|--------------1--0------------------------------|
D|--------0--2-----2------------------------------|
A|--1--2-----------3------------------------------|
E|------------------------------------------------|

Play it fast-it's fun as hell to play-so fun i play metal and still love to play this
Tap to rate this tab
 
# A B C D E F G H I J K L M N O P Q R S T U V W X Y Z