Song name
# A B C D E F G H I J K L M N O P Q R S T U V W X Y Z

Johnny Cash - After The Ball tab

Help us improve GuitareTab! Take a short survey!
After the Ball
Written by: Johnny Cash
Recorded: December 10,1976
Source: The Essential Johnny Cash Vol. 3

-----------------------------------------------------------------------|
-----------------------------------------------------------------------|
-----------------------------------------------------------------------|
-----3-3-3-----3-3-3------3-3-3-----3----------------------------------|
--------------3-----------3-----------3--------------------------------|
----------------------------------------------------------------- ---|(x2)

----------------------------2-------------------------------------|
------------------------2------2----------2-----------------------|
--------------------2--------------2----------2-------------------|
-------------2-2----------------------2----------2----------------|
--------2---------------------------------------------2-----------|
0--2-----------------------------------------------------2--------|
Related for After The Ball tab