Song name
# A B C D E F G H I J K L M N O P Q R S T U V W X Y Z

Johnny Eastwood Logo - Fallout tab

This is just the main part, I'll have the solo and bridge 
later.

e-------------------------------------------------------
B-------------------------------------------------------
G---------------------------------------2-2-2-2-2--4-4-4
D--4-4-4--2-2-2-2--6-6-6--  -4-4-4-4-4--2-2-2-2-2--4-4-4
A--4-4-4--2-2-2-2--6-6-6--x2-4-4-4-4-4--0-0-0-0-0--2-2-2
E--2-2-2--0-0-0-0--4-4-4--  -2-2-2-2-2------------------

e-------------------------------------------------------
B-------------------------------------------------------
G-4-4---------------------------------------------------
D-4-4--2-2-2-2--3--  -4-4-4-4--2--4--x-x-x-x------------
A-2-2--2-2-2-2--3--x4-4-4-4-4--2--4--x-x-x-x------------
E------0-0-0-0--1--  -2-2-2-2--0--2--x-x-x-x------------

                Have fun and keep rockin'!
Tap to rate this tab
 
# A B C D E F G H I J K L M N O P Q R S T U V W X Y Z