Song name
# A B C D E F G H I J K L M N O P Q R S T U V W X Y Z

Johnny Flynn - Brown Trout Blues tab

100% correct, from Album A Larum. Chords from little-wing18 thought i'd show the intro hammers

|----------------||----------------||---------------|
|-1---1-h1-------||----------------||---h1----------|
|--0h2--h2-0---0-||--0---0---0-----||-0-h2-0-0----0-|
|-----------0h2--||-------0h3-3-2--||---------------|
|3---------------||-2-0h2--------3-||-------2--0h2-3|
|----------------||-3--------------||-------3-------|

|------------------|
|------1-h1--------|
|-0-0h2--h2-0---0--|
|------------0h2---|
|----------------3-|
|------------------|
Tap to rate this tab
# A B C D E F G H I J K L M N O P Q R S T U V W X Y Z