Song name
# A B C D E F G H I J K L M N O P Q R S T U V W X Y Z

Johnny Flynn - Travel Light tab

----------------------------------------------------------------------------
	        TRAVEL LIGHT - Johnny Flynn and Laura Marling
----------------------------------------------------------------------------
Tabbed by: Kid_Kadoo
Email: peas_suck@hotmail.co.uk

Essentially, it's just the chords G, A, D, E7.  But there are a couple of random wiggly 
in there...

Tuning: Regular tuning! (:

    1   +    2  +   3   +   4  +    1    +  2  +    3   +   4   +
e|------3---------------0------0---------3-----3--------0------------------|
B|------3---------------2------2---------2-----2--------0-------0----------|
G|------0---------------2------2---------3-----3--------1--0H1-------------|
D|------0-------0-------2------2----0-------------------0------------------|
A|------2---0H2-----0-------------------------------2----------------------|
E|--3----------------------------------------------------------------------|

The above tab is essentially the chords plus wiggly bits. Below are just the chords. 
the chords are the same the whole way through, you can just decide when to put in the 
bits as you feel necessary... and just strum the chords in a country-ish fashion.  :P

e|-----3--------0--------3--------0----------------0-----------------------|
B|-----3--------2--------2--------0----------------3-----------------------|
G|-----0--------2--------3--------1----------------1-----------------------|
D|-----0--------2--------0--------0----------------2-----------------------|
A|-----2--------0-----------------2----------------2-----------------------|
E|-----3--------------------------0----------------0-----------------------|
       G        A        D        E7 (Version 1)   E7 (Version 2)


Any questions, just drop me a line! I'll be happy to help.
Tap to rate this tab
 
# A B C D E F G H I J K L M N O P Q R S T U V W X Y Z