Johnny Flynn - The Box tab

The Box- Johnny Flynn
Intro

E-----------------|
A-----------------|
D-2-2-2-2-2-2-2-2-|
G---4-4-4---4-4-4-|
B---5-5-5---5-5-5-|
e---0-0-0---0-0-0-|

E-3---------------------|
A---0h2h4---0h2h4-2h4---|
D---------2-----------2-|
G-----------------------|
B-----------------------|
e-----------------------|

E-7-4-7-4-0-2-4--7-4-7-4-0-2-4-7-4-7-4-0-2-4-5-4-7-4-2-0-0-|
A----------------------------------------------------------|
D----------------------------------------------------------|
G----------------------------------------------------------|
B----------------------------------------------------------|
e----------------------------------------------------------|
Tap to rate this tab
 
# A B C D E F G H I J K L M N O P Q R S T U V W X Y Z