Song name
# A B C D E F G H I J K L M N O P Q R S T U V W X Y Z

Johnny Flynn - The Wrote And The Writ tab

-------------------------------------------------------------------------------
                             THE WROTE AND THE WRIT - Johnny Flynn
-------------------------------------------------------------------------------
Tabbed by: George
Email:

Tuning: EADGBE

Capo on 2nd Fret for same pitch as Johnny


A LOT of people have asked me for this tab and I've taken ages to write it. But 
now its here. Wrote and Writ. Enjoy and message me any corrections or feedback.


Versey bit

e|-----2-------------2----3----------0h2p0-----------0---0--------------------|
B|----------3--------2----3---3------------3---------2------------------------|
G|--------------2----3----4-----4----2---------2-----2---2--------------------|
D|-----4------4--------------------0-------------0h2--------------------------|
A|--2-----2--------------------------------------------0----0-----------------|
E|-----------------2----3-----------------------------------------------------|

e|-----2-------------2----3----------0h2p0-----------0-------2-----0h2--2-----|
B|----------3--------2----3---3------------3---------2----------3----------3--|
G|--------------2----3----4-----4----2---------2-----2-------2---2-----2----2-|
D|-----4------4--------------------0-------------0h2----2--0--0----0-----0----|
A|--2-----2-------------------------------------------------------------------|
E|-----------------2----3-----------------------------------------------------|


Chorusy bit

NOTE: by "--x3--" I mean a note brushed by the
back of the nail as the first finger reaches for the 5.
Its almost like a muted note but its not quite


e|------5----------0------2-------------0h2p0----------0---0-----------------|
B|----x3---3--3----2-----------3--------------3--------2---------------------|
G|---x2-----2------2---------------2----2--------2-----2---2-----------------|
D|--0----0------0h2-------4------4----0------------0h2-----------------------|
A|-------------------0--2----2---------------------------0----0--------------|
E|---------------------------------------------------------------------------|

e|------5----------0------2-------------0h2p0----------0-----2----0h2--2-----|
B|----x3---3--3----2-----------3--------------3--------2--------3---------3--|
G|---x2-----2------2---------------2----2--------2-----2-----2---2----2----2-|
D|--0----0------0h2-------4------4----0------------0h2---2-0--0---0-----0----|
A|-------------------0--2----2-----------------------------------------------|
E|---------------------------------------------------------------------------|


Break Section

e|--------------------------------------5-----5--3--2------------------------|
B|--(3)------3--3-----3---3----3-----/7-------3--3--3------------------------|
G|--(0)------0--------0---0----0---------------------------------------------|
D|-----------0--------0---0----0----------0----------------------------------|
A|----------------0h2---2----------------------------------------------------|
E|----3-2-3------------------2-----------------------------------------------|

e|-----------------------------------7p5------3--2---0-----------------------|
B|--(3)------3--3-----3---3----3-----7----7---3--3---2-----------------------|
G|--(0)------0--------0---0----0---------------------2-----------------------|
D|-----------0--------0---0----0---------------------------------------------|
A|----------------0h2---2----------------------------0-----------------------|
E|----3-2-3------------------2-----------------------------------------------|



************************************

| /   slide up
| \   slide down
| h   hammer-on
| p   pull-off
| ~   vibrato
| +   harmonic
| x   Mute note
| b   Bend
| pb  Pre-bend
| br  Bend release
| pbr Pre-bend release
| brb Bend release bend

************************************
Tap to rate this tab
# A B C D E F G H I J K L M N O P Q R S T U V W X Y Z