Song name
# A B C D E F G H I J K L M N O P Q R S T U V W X Y Z

Johnny Flynn - Wayne Rooney tab

-------------------------------------------------------------------------------
                             WAYNE ROONEY - Johnny Flynn
-------------------------------------------------------------------------------
Tabbed by: Bl4ck0n3

The tuning is (from lowest to highest): E E B E G# e

Capo on 3rd

NOTE: This is no more than a tentative draft of the chords (since there are no tabs of 
this song yet) and is in no way made for perfection.

The song is pretty standard travis fingerpicking so i'm not going to map it out. Again, 
this is just a guideline,so you'll have to listen to the song to figure out the timing.

Enjoy!

Intro/Verse:

e    |---4--------2-------0-------0--------0---------------|
G#   |---3--------1-------0-------1--------0---------------|
E    |---0--------0-------0-------0--------0---------------|
B    |---0--------0-------2-------2--------0---------------|
E    |---0--------0-------0-------0--------0---------------|
E    |---0--------0-------0-------0--------0---------------|

Chorus ("If I know better...")

e    |---0--------0-------0---------------|
G#   |---3--------1-------0---------------|
E    |---0--------0-------0---------------|
B    |---4--------2-------0---------------|
E    |---0--------0-------0---------------|
E    |---0--------0-------0---------------|

Lyrics:

You're one of those elephant hunters from Ebbsfleet
Primordial superman
I know the trouble you've gotten in
Leave this trouble half cottoned down

If I know better, I don't know better
If I know better, I don't know better

The pigeon's half alive
The other half's in bed
We'll pray for the pigeon or half at least
And pray he's not half dead

If I know better, I don't know better
If I know better, I don't know better

The bartender looks like George Best
Plenty of them do
Look at the way that George went astray
And has since been misconstrued

If I know better, I don't know better
If I know better, I don't know better

Got caught in a sacrilegious embrace
We're entrepreneurs in the field
Till we rolled on the bones and we made them our own
And the road to contention was sealed

If I know better, I don't know better
If I know better, I don't know better
Tap to rate this tab
# A B C D E F G H I J K L M N O P Q R S T U V W X Y Z