Song name
# A B C D E F G H I J K L M N O P Q R S T U V W X Y Z

Johnny Flynn - Tunnels tab

This tab is a revision of the chords submission of this song. I set it in the right key, 
corrected a couple chords, and added some finger picking tabs for most of the song. Johnny 
actually uses a capo on the fifth fret when playing, so all the chords are different from 
the ones shown on the other sub (and imo, easier to play). The basic chord progression is this:


Capo 5

G                   C         Em
I knew no vices and I knew no sin
C                         F          C
I knew the words but they didn't sink in
G                                C           Em
Stayed out of those tunnels that pull people down
C                                F        C
There's more of those tunnels in your home town
G                       C              Em
Fell far from grace, so far I couldn't see
C                             F                C
And oh, underground, I wasn't that far from the tree

F                       C
We're all digging if you wanna know
G                              Em    C
Fixing digging far too slow
        G
Far too slow



The timing of the rythm isn't exact. Listen to the song for proper timing. 
Also, there are various minor changes between verses (hammer-ons, etc.), just 
listen for when they happen.


Intro:

 G              x3
|-----------------||-----------------|
|---3--3----3--0--||---3--3----3--3--|
|-----------------||-----------------|
|---0-------0--0--||---0--0----0--0--|
|---2---0---2---2-||---2---2---0---0-|
|-3---3---3---3---||-3---3---3---3---|



Verse:

 G                  C        Em        C
|-----------3-----||-----------0-----||-----------------|
|---3--0-------0--||---1--0-------0--||---1--1----1--0--|
|-----------------||-----------------||-----------------|
|---0--0----0--0--||---2--2----2--2--||---2--2----2--2--|
|---2---2---2---2-||---3---3---2---2-||---3---3---3---3-|
|-3---3---3---3---||-3---3---0---0---||-3---3---3---3---|

 F        C
|-----------------|
|---1--0----1--0--|
|-----------------|
|---3--3----2--0--|
|---3---3---3---3-|
|-1---1---3---3---|



Chorus:


 F        C         G
|-----------------||-----------------||-----------------|
|---1--0----1--0--||---0--0----0--0--||---0--0----0--0--|
|-----------------||-----------------||-----------------|
|---3--3----2--2--||---0--0----0--0--||---0--0----0--0--|
|---3---3---3---3-||---2---2---2---2-||---2---2---2---2-|
|-1---1---3---3---||-3---3---3---3---||-3---3---3---3---|


 Em                 C
|---0-----0----0--||---0-----0-------|
|------0-----0----||------1-----1-0--|
|-----------------||-----------------|
|---2--2--2--2-2--||---2--2--2--2-2--|
|---2---2---2---2-||---3---3---3---3-|
|-0---0---0---0---||-3---3---3---3---|



I havent yet figured out the G part following the chorus (it's pretty tricky). 
When/if I do, I'll add it to the comments. Enjoy
Tap to rate this tab
 
# A B C D E F G H I J K L M N O P Q R S T U V W X Y Z