Song name
# A B C D E F G H I J K L M N O P Q R S T U V W X Y Z

Johnny Flynn - Wayne Rooney tab

Tuning: DADF#AD (Open D)
Capo: 3

This is how I play Wayne Rooney. Not perfect, but close enough for the campfire.


Verse:

D---2s4--2--0--0--0---|
A-----0--0--0--0--0---|
F-----0--0--0--1--0---|
D---2s4--2--0--0--0---|
A-----------2-----0---|
D-----------------0---|

Chorus:

D---------0----|
A---0--0--0----|
F---3--1--0----|
D---0--0--0----|
A---4--2--0----|
D---------0----|


Enjoy!
Tap to rate this tab
# A B C D E F G H I J K L M N O P Q R S T U V W X Y Z