Johnny Foreigner - Eyes Wide Terrified tab

Ok well i know ive only done the first 20 seconds but hopefully people will be 
able to expand on this :D

please comment so we can get this right together :)

|--------------------------------------------|
|--------------------------------------------|
|--9-------9---9---9---9---6--6--9--6--6--9--|
|--9---9---7---7---7---7---7--7--7--7--7--7--|
|--7---7---5---5---X---5---0--X--5--0--X--5--|
|------7-------5---7----------7--------7-----|

|----------------------------------------------------------|
|----------------------------------------------------------|
|----------------------------------13-13-13-13-13-13-13-13-|
|--11-13-11-9-11-7-11-13-11-9-11-7-13-13-13-13-13-13-13-13-|
|----------------------------------------------------------|
|----------------------------------------------------------|
Tap to rate this tab
 
# A B C D E F G H I J K L M N O P Q R S T U V W X Y Z