Johnny Foreigner - Salt Pepa And Spinderella tab

Tuning = EADABC# (So G string up a step)

|-------------------------------------------|
|-------------------------------------------|
|------------------9p0-12-12/14-12----------|
|-------------10p0-----------------12-16-14-|
|-9/10p0-12p0-------------------------------|
|-------------------------------------------|


------------------------------------------|
---------------------------------14-12----|
-----------------9p0-12-12/14-12-------12-|
------------10p0--------------------------|
9/10p0-12p0-------------------------------|
------------------------------------------|
Tap to rate this tab
 
# A B C D E F G H I J K L M N O P Q R S T U V W X Y Z