Song name
# A B C D E F G H I J K L M N O P Q R S T U V W X Y Z

Johnny Foreigner - Salt Peppa And Spinderella tab

Tabbed by; A.Garner
Email; alygarner@hotmail.co.uk

He jazzes it up a bit playing it live, but this is the closest I've got with the 
album version. Rate please!

Unstandard tuning: EADABC#

|------------------------||--------------||------------------------|
|--12---10---3---7---12--||--3---7---12--||--12---10---3---7---12--|
|------------------------||--------------||------------------------|
|--12---11---4---7---12--||--4---7---12--||--12---11---4---7---12--|
|------------------------||--------------||------------------------|
|------------------------||--------------||------------------------|

|---------------------------|        |----------------------------|
|--------------------0---10-|        |-------------------------10-|
|--------------0h9p0---0----|   or   |--------------0h9p0---------|
|--------0h9p0--------------|        |--------0h9p0-------h9p0----|
|-0h9h10--------------------|        |-0h9h10---------------------|
|-------(hold the 10)-------|        |-------(hold the 10)--------|



They both fit, I think the second is more likely looking at this;

http://www.youtube.com/watch?v=i0QF6rZozRg   (1.45)



Repeated til end of song              (Alternate between these two) 
|-------------------------||---------------------||-----------------------|
|-------------------------||--12---10---3---7-5--||--12---10---14---12-10-|
|-(one of sections above)-||---------------------||-----------------------|
|-------------------------||--12---11---4---7-7--||--12---11---14---12-11-|
|-------------------------||---------------------||-----------------------|
|-------------------------||---------------------||-----------------------|

Ending chords

|------------------------|
|-12---14---15---17---19-|
|------------------------|
|-12---14---16---17---19-|
|------------------------|
|------------------------|

Timings and repetition numbers are easy to spot, so I left them out.
Tap to rate this tab
 
# A B C D E F G H I J K L M N O P Q R S T U V W X Y Z