Guitaretab - guitar tabs
Song name
# A B C D E F G H I J K L M N O P Q R S T U V W X Y Z

Johnny Guitar Watson - Gangster Of Love tab

http://www.soulwalking.co.uk/Johnny%20Guitar%20Watson.html

Johnny Guitar Watson
Gangster of Love

Tabbed by Jared Hartsfield
Cute-Jared@juno.com
check out my bands site www.myspace.com/flintnsteel

----------------------|
----------------------|(repeat in between words)
--------5-------------|
----5---5---8----5----|
----5---3---8----5----|
----3-------6----3----|

Jesse James and Frank James
Billy Kid, all the rest
Supposed to be some bad cats
Out in the West
But when they dug me
And my gangster ways
(stop)
-----------------|
-----------------| They hung up their guns
-----------------|And made it to the grave
--5--5-5-5-5-5-5-|
--5--5-5-5-5-5-5-|
--3--3-3-3-3-3-3-|

(chorus)
[ Tab from: http://www.guitaretab.com/j/johnny-guitar-watson/77283.html ]
------------------------|
------------------------|
------------------------|Repeat
--5-5--7--5-5--5--7-5---|
--3-3--3--3-3--3--3-3---|'Cause I'm a gangster of
------------------------| love

-----------------------|
-----------------------|
-----------------------|
-----------------------|(repeat)
-5-5--7--5-5-5--7------| Say IM a Ganster of Love
-3-3--3--3-3-3--3------|

------                             ------------|
------                             ------------|
--7---                             --5----5----|
--7---when i walk down the street  --5----5----| All the girls i meet
--5---                             --7----3----| Say hes a gangster of love
------                             ------------|


-----------------------------|
-----------------------------|
-----------------------7-7-7-|
-----------------------7-7-7-|
-5-5--7--5-5-5--7-5----5-5-5-|
-3-3--3--3-3-3--3-3----------|
Related for Gangster Of Love tab
Gangster Of Love chords by Johnny Guitar Watson