Johnny Hallyday - Que Je Taime tab

Que Je T'aime
Johnny Hallyday
(J. Renard / G. Thibaut)

Tuning: EADGBE
Capo7


   Gm                                 F 
E|---------------------------------|---------------------------------|
B|---4---4---3---3---1---0---1---3-|---4---4---3---3---1---0---1---3-|
G|-----0---0---0---0---0---0---0---|-----0---0---0---0---0---0---0---|
D|---------------------------------|---------------------------------|
A|-3-------------------------------|-1-------------------------------|
E|---------------------------------|---------------------------------|

   D#                                D
E|---------------------------------|---------------------------------|
B|---4---4---3---3---1---0---1---3-|---4---4---3---3---1---0---1---3-|
G|-----0---0---0---0---0---0---0---|-----0---0---0---0---0---0---0---|
D|---------------------------------|---------------------------------|
A|---------------------------------|---------------------------------|
E|-4-------------------------------|-3-------------------------------|
     

Verse 1:

Gm
Quand tes cheveux s'étalent
F 
Comme un soleil d'été
D#
Et que ton oreiller
D
Ressemble aux champs de blé
Gm
Quand l'ombre et 1a lumière
F
Dessinent sur ton corps
D#
Des montagnes, des forêts
   D
Et des îles au trésor


Refrain:

  Gm                     D#           Cm
Que je t'aime, que je t'aime, que je t'aime
  F                      D             D
Que je t'aime, que je t'aime, que je t'aime


Verse 2:

Quand ta bouche se fait douce
Quand ton corps se fait dur
Quand le ciel dans tes yeux
D'un seul coup n'est plus pur


Verse 3:

Quand tes mains voudraient bien
Quand tes doigts n'osent pas
Quand ta pudeur dit non
D'une toute petite voix


Refrain:

Que je t'aime, que je t'aime, que je t'aime
Que je t'aime, que je t'aime, que je t'aime


Verse 4:

Quand tu ne te sens plus chatte
Et que tu deviens chienne
Et qu'à l'appel du loup
Tu brises enfin tes chaînes


Verse 5:

Quand ton premier soupir
Se finit dans un cri
Quand c'est moi qui dit non;
Quand c'est toi qui dit oui


Refrain:

Que je t'aime, que je t'aime, que je t'aime
Que je t'aime, que je t'aime, que je t'aime


Verse 6:

Quand mon corps sur ton corps
Lourd comme un cheval mort
Ne sait pas, ne sait plus
S'il existe encore


Verse 7:

Quand on a fait l'amour
Comme d'autres font la guerre
Quand c'est moi le soldat
Qui meurt et qui la perd


Refrain:

Que je t'aime, que je t'aime, que je t'aime
Que je t'aime, que je t'aime, que je t'aime 

_______________________________________________

Tabbed by Sexytom (http://lostintheseventies.blogspot.com)

Lyrics courtesy of: http://www.hallyday.com.fr/ 

Comments, corrections: civetom@hotmail.com
Tap to rate this tab
 
# A B C D E F G H I J K L M N O P Q R S T U V W X Y Z