Song name
# A B C D E F G H I J K L M N O P Q R S T U V W X Y Z

Johnny Hiland - Until We Meet Again tab

                               UNTIL WE MEET AGAIN
                          As recorded by Johnny Hiland
                       (From the 2004 Album JOHNNY HILAND)

Music by Johnny Hiland
Transcribed by heathb@chariot.net.au

Gtr I (E A D G B E) - 'Untitled'

   4/4
    Gtr I
      PM  PM  PM  PM                        PM  PM
    E E E E E E E E  E E  E  E E  E E E   E E E E E E E E   E E E E E E E E E
||-----------------------10--9-7--------|-----------------|-------------------|
||o-7---7---8---8---10---10-10-7-10-8---|-7---7---8-7-----|---------------7-8-|
||--7---7---7---7----7----------------9-|-7---7---7---9-7-|-----------7-9-----|
||----0---0---0---0----0----------------|---0---0---------|-------7-9---------|
||o-------------------------------------|-----------------|-7h8h9-------------|
||--------------------------------------|-----------------|-------------------|


                  PM  PM  PM  PM
  E E E E E     E E E E E E E E
|------------||-----------------|
|-7---------o||-7---7---8---8---|
|---9-7---7--||-7---7---7---7---|
|-------9----||---0---0---0---0-|
|-----------o||-----------------|
|------------||-----------------|


                          PM  PM
   E E  E  E E  E E E   E E E E E E E E    E   E
|------10--9-7--------|-----------------|---------|
|-10---10-10-7-10-8---|-7---7---8-7-----|-----<7>-|
|--7----------------9-|-7---7---7---9-7-|---------|
|----0----------------|---0---0---------|-<7>-----|
|---------------------|-----------------|---------|
|---------------------|-----------------|---------|


              PM  PM  PM  PM
   E   E    E E E E E E E E    E E  E  E E  E E E
|---------|-----------------|------10--9-7--------|
|---------|-7---7---8---8---|-10---10-10-7-10-8---|
|-----<7>-|-7---7---7---7---|--7----------------9-|
|-<7>-----|---0---0---0---0-|----0----------------|
|---------|-----------------|---------------------|
|---------|-----------------|---------------------|


    PM  PM
  E E E E E E E E   E E E    E
|-----------------|------------------|
|-7---7---8-7-----|------------------|
|-7---7---7---9-7-|-7-9-9b11-9pb11r==|
|---0---0---------|------------------|
|-----------------|------------------|
|-----------------|------------------|


        ~
  E E E E  E   E E E E E E E  E E  E  E     E  E      E  E  E
|------------------------------------------12-----------------|
|---------------------------------10-12b14----12pb14r10-12-10-|
|-7---6-7--7b9r7-6-7-6----------9-----------------------------|
|---9------------------9-7-9S11-------------------------------|
|-------------------------------------------------------------|
|-------------------------------------------------------------|


  E  E     E  E     E  E     E E  E E E
|---------10-------10-------------------|
|-8-10b12----10b12----10b12r=8---10---8-|
|------------------------------9----9---|
|---------------------------------------|
|---------------------------------------|
|---------------------------------------|


                            ~
  E E E E E E E E E E E E E E    E E  E E E E E E E E E E E E E E E E E
|------------------------------|-9-7------------------------------------|
|---7-8-7---8-7---7------------|-----10-9-8---7h8p7---7-8-7-------------|
|-9-------9-----9---9-8-7---7--|------------9-------9-------9-8-7---7---|
|-------------------------9----|----------------------------------9---9-|
|------------------------------|----------------------------------------|
|------------------------------|----------------------------------------|


               PM  PM  PM  PM
  E   E E    E E E E E E E E    E E  E  E E  E E E
|----------|-----------------|------10--9-7--------|
|----------|-7---7---8---8---|-10---10-10-7-10-8---|
|-6b7r=====|=7---7---7---7---|--7----------------9-|
|-----7----|---0---0---0---0-|----0----------------|
|-------7\-|-----------------|---------------------|
|----------|-----------------|---------------------|


    PM  PM
  E E E E E E E E    E   E   E   E
|-----------------|-----------------|
|-7---7---8-7-----|-----<7>---------|
|-7---7---7---9-7-|-------------<7>-|
|---0---0---------|-<7>-----<7>-----|
|-----------------|-----------------|
|-----------------|-----------------|


    PM  PM  PM  PM
  E E E E E E E E    E E  E  E E  E E E
|-----------------|------10--9-7--------|
|-7---7---8---8---|-10---10-10-7-10-8---|
|-7---7---7---7---|--7----------------9-|
|---0---0---0---0-|----0----------------|
|-----------------|---------------------|
|-----------------|---------------------|


    PM  PM
  E E E E E E E E   E  E  E  E  E     E
|--------------------------------------------|
|-7---7---8-7------------15-17-17b19-17b19r==|
|-7---7---7---9-7---9S16---------------------|
|---0---0------------------------------------|
|--------------------------------------------|
|--------------------------------------------|


         ~~
   E  E  E   E  E  E  E  E   E  E  E  E   E  E  E  E   E  E  E E  E  E E E E    E E     E
|-------------------------------------------------------------------------------------------|
|-15-17-15--15-15h17p15S14--14h15p14S12--12h14p12S10--10h12p10S8--8h10p8S7------7-----------|
|--------------------------------------------------------------------------9b11---9pb11r====|
|---------------------------------------------------------------------------------------7---|
|-------------------------------------------------------------------------------------------|
|-------------------------------------------------------------------------------------------|


  E E E E E E E E E E  E E  E E  E E E  E E E  E E E  E E E E E E E E E E E E
|------------------------7----7-10-7-9-10p9p7----9p7--------------------------|
|---------------7-8-9-10---10-----------------10-----10-9-8---7h8p7---7-8p7---|
|-----------7-9---------------------------------------------9-------9-------9-|
|-------7-9-------------------------------------------------------------------|
|-7h8h9-----------------------------------------------------------------------|
|-----------------------------------------------------------------------------|


                                                            ~
  E  E E E E E E E E E E E E E E  E  E  E  E  E  E  E E E E E
|-------------------------------------------------------------|
|-7-10p7-8-8-7---8p7---7------------10-12-11-10-10-10-0-8-0-7-|
|--------------9-----9---9-8-7-9S11---------------------------|
|-------------------------------------------------------------|
|-------------------------------------------------------------|
|-------------------------------------------------------------|


   E     E  E E  E E  E
|--------7-10-9----7-------|
|-10b12---------10---10b12-|
|--------------------------|
|--------------------------|
|--------------------------|
|--------------------------|


  E  E E  E E E  E E  E E E E E E E E E E E E E E E E      E
|-7-10-9h10p9p7----9-------------------------------------------|
|---------------10---10-9-8---7h8p7---7-8-7--------------------|
|---------------------------9-------9-------9-8-7---6b7r=======|
|-------------------------------------------------9--------7b9r|
|--------------------------------------------------------------|
|--------------------------------------------------------------|


  E E E E E  E
|------------------|
|-------8---10b12r=|
|-----7---7--------|
|-7-9--------------|
|------------------|
|------------------|


  E  E E  E     E  E  E     E  E  E E E E E E
|--------------12-10--------------------------|
|-8-10-8-12b14-------12b14r10-12-10S8-7-------|
|---------------------------------------9-7-9-|
|---------------------------------------------|
|---------------------------------------------|
|---------------------------------------------|


    PM  PM  PM  PM
  E E E E E E E E    E E  E  E E  E E E
|-----------------|------10--9-7--------|--|
|-7---7---8---8---|-10---10-10-7-10-8---|--|
|-7---7---7---7---|--7----------------9-|--|
|---0---0---0---0-|----0----------------|--|
|-----------------|---------------------|--|
|-----------------|---------------------|--|


    PM  PM
  E E E E E E E E   E E E E E E E E
|-----------------|-----------------|
|-7---7---8-7-----|---------------7-|
|-7---7---7---9-7-|-----------7-9---|
|---0---0---------|-------7-9-------|
|-----------------|-7h8h9-----------|
|-----------------|-----------------|


                PM    PM  PM  PM
  E E E E E E E E   E E E E E E  E E    E  E E  E E
|-----------------|------------------|-10--9-7------|
|-8-7---------7---|-7---8---8---10---|-10-10-7-10-8-|
|-----9-7---7-7---|-7---7---7----7---|--------------|
|---------9-----0-|---0---0---0----0-|--------------|
|-----------------|------------------|--------------|
|-----------------|------------------|--------------|


      PM    PM      ~ PM---------------------------------------------------|
  E E E E   E E E E E E E E E E E  E   E E E E E E E E    E E  E  E E  E E E
|---------|--------------------------|-----------------|------10--9-7--------|
|---7---7-|---8-7-----8-7------------|-7---7---8---8---|-10---10-10-7-10-8---|
|-9-7---7-|---7---9-7-----9-7--------|-7---7---7---7---|--7----------------9-|
|-----0---|-0-----------------9-7----|---0---0---0---0-|----0----------------|
|---------|-----------------------10-|-----------------|---------------------|
|---------|--------------------------|-----------------|---------------------|


  PM------------|
  E E E E E E E E    E   E   E   E
|-----------------|------------------|
|-7---7---8-7-----|-----<7>----------|
|-7---7---7---9-7-|-------------<7>--|
|---0---0---------|-<7>-----<7>------|
|-----------------|------------------|
|-----------------|------------------|


  PM----------------------------------|
  E E E E E E E E    E E  E  E E  E E E
|-----------------|------10--9-7-----------|
|-7---7---8---8---|-10---10-10-7-10-8------|
|-7---7---7---7---|--7----------------9----|
|---0---0---0---0-|----0-------------------|
|-----------------|------------------------|
|-----------------|------------------------|


  PM------------~                        ~
  E E E E E E E E   E E E    E     E E E E
|-----------------|-------------------------|
|-7---7---8-7-----|-------------------------|
|-7---7---7---9-7-|-7-9-9b11-9pb11r7---6-7--|
|---0---0---------|------------------9------|
|-----------------|-------------------------|
|-----------------|-------------------------|


  E    E E E E E E E E    E E  E
|----------------------|--------------|
|----------------------|------10b12---|
|-7b9r=6-7-6-7-6-------|----9---------|
|----------------9-7-9S|=11-----------|
|----------------------|--------------|
|----------------------|--------------|


            ~~
   E        E
|---------------|
|-10pb12r==10---|
|---------------|
|---------------|
|---------------|
|---------------|


                                             ~~~~~~~~
   E  E  E  E  E  E  E  E  E  E  E  E  E  E  E  E  E   E  E  E  E E   E  E  E E
|-10----10-10-------------10----------10----------------------------------------|
|-10h12----12-10h12p10----------10h12----12S15-15-15--15-14h15p14p0--12h14p12p0-|
|----------------------12----12-------------------------------------------------|
|-------------------------------------------------------------------------------|
|-------------------------------------------------------------------------------|
|-------------------------------------------------------------------------------|


   E  E  E E  E  E E E  E E E E E E E E E E
|-----------------------------------------------|
|-10h12p10p0--8h10p8p0--7h8p7---7---------------|
|-----------------------------9---9-8-7---6/----|
|---------------------------------------9-------|
|-----------------------------------------------|
|-----------------------------------------------|


    PM  PM  PM  PM
  E E E E E E E E    E E  E  E E  E E E
|-----------------|------10--9-7--------|
|-7---7---8---8---|-10---10-10-7-10-8---|
|-7---7---7---7---|--7----------------9-|
|---0---0---0---0-|----0----------------|
|-----------------|---------------------|
|-----------------|---------------------|


    PM  PM
  E E E E E E E E   E E E E E E E E   E
|-----------------|-----------------|---|
|-7---7---8-7-----|-------------8-7-|---|
|-7---7---7---9-7-|-----------7-----|-9-|
|---0---0---------|-------7-9-------|---|
|-----------------|-7h8h9-----------|---|
|-----------------|-----------------|---|


      PM    PM  PM  PM                        PM    PM
  E E E E   E E E E E  E E  E    E E  E E E E E E   E E E E E   E  E  E  E
|---------|----------------10-|--9-7--------------|------------------10-----|
|---7---7-|---8---8---10---10-|-10-7-10-8---7---7-|---8-7-------8S10----10--|
|-7-7---7-|---7---7----7------|-----------9-7---7-|---7---9-7---------------|
|-----0---|-0---0---0----0----|---------------0---|-0-----------------------|
|---------|-------------------|-------------------|-------------------------|
|---------|-------------------|-------------------|-------------------------|


   E  E  E  E  E  E  E  E  E  E  E  E  E  E  E  E  E  E  E  E  E  E  E  E  E  E  E  E  E  E  E  E  E  E  E
|-14p10----14p10----14----15----10-15p10----15----14----10-14p10----14----12----12----14----10----14----10-|
|-------10-------10----10----10----------10----10----10----------10----10----10----10----10----10----10----|
|----------------------------------------------------------------------------------------------------------|
|----------------------------------------------------------------------------------------------------------|
|----------------------------------------------------------------------------------------------------------|
|----------------------------------------------------------------------------------------------------------|


   E  E  E  E  E  E  E  E  E  E  E  E  E  E  E  E  E  E  E  E  E  E  E  E  E  E  E  E  E  E  E  E  E  E  E
|-14p10----14----15----10-15p10----15----14p10----12p10----14p10----12p10----10----10----------10----------|
|-------10----10----10----------10----10-------10-------10-------10-------14----14----14p10-------14p10----|
|-------------------------------------------------------------------------------------------14----------14-|
|----------------------------------------------------------------------------------------------------------|
|----------------------------------------------------------------------------------------------------------|
|----------------------------------------------------------------------------------------------------------|


   E  E  E  E  E  E  E  E  E  E  E  E  E  E  E  E  E  E  E  E  E  E  E  E
|-10----------10----------10----------10----10----10----10----------------|
|----14p10-------14p10-------14p10-------12----------12-------12p10----10-|
|----------14----------14----------14----------12----------12-------12----|
|-------------------------------------------------------------------------|
|-------------------------------------------------------------------------|
|-------------------------------------------------------------------------|


   E  E  E  E E  E E  E E
|--------9h10p9----9-10-9-|
|-10------------12--------|
|-14-12-------------------|
|-------------------------|
|-------------------------|
|-------------------------|


                                                ~
   E  E  E  E  E  E  E E E E E E E E    E E     E
|----------------------------------------------------|
|-12-11-10----10---------7h8p7---7------7------------|
|----------12----11-12S9-------9---9b11---9pb11r=====|
|-----------------------------------------------7----|
|----------------------------------------------------|
|----------------------------------------------------|


                                 ~~
  E E E E E E E E E E E  E  E E  E    E E E E E E  E E E E E E E E E E E E
|-----------------------------7-----|-7-9-7-9-9p7--------------------------|
|---------------------7-10-11---11--|-------------10-9-8---7h8p7---7-8-7---|
|-----------6-7-6-7-9---------------|--------------------9-------9-------9-|
|-7-8-9-8-9-------------------------|--------------------------------------|
|-----------------------------------|--------------------------------------|
|-----------------------------------|--------------------------------------|


  E E E E
|-------------|
|-------------|
|-8-7---6b7r==|
|-----9-------|
|-------------|
|-------------|


  E E E     E     E       E E  E E E  E E E  E E E E E E E E E E E E E E
|------------------------10-9-10p9p7----9p7------------------------------|
|-----------8b10--8pb10r=============10-----10-9-8---7h8p7---7-8p7-------|
|-----7pb9r========================================9-------9-------9p8p7-|
|-7S9--------------------------------------------------------------------|
|------------------------------------------------------------------------|
|------------------------------------------------------------------------|


            PM  PM  PM  PM
  E E     E E E E E E E E    E E  E  E E  E E E
|-------|-----------------|------10--9-7--------|
|-------|-7---7---8---8---|-10---10-10-7-10-8---|
|---6b7r|=7---7---7---7---|--7----------------9-|
|-9-----|---0---0---0---0-|----0----------------|
|-------|-----------------|---------------------|
|-------|-----------------|---------------------|


    PM  PM
  E E E E E E E E    E   E   E   E
|-----------------|------------------|
|-7---7---8-7-----|-----<7>----------|
|-7---7---7---9-7-|-------------<7>--|
|---0---0---------|-<7>-----<7>------|
|-----------------|------------------|
|-----------------|------------------|


    PM  PM  PM  PM                          PM  PM
  E E E E E E E E    E E  E  E E  E E E   E E E E E E E E  E E E E E E E
|-----------------|------10--9-7--------|---------------------------------|
|-7---7---8---8---|-10---10-10-7-10-8---|-7---7---8-7------8-7------------|
|-7---7---7---7---|--7----------------9-|-7---7---7---9-7------9-7S6------|
|---0---0---0---0-|----0----------------|---0---0--------------------9-7--|
|-----------------|---------------------|---------------------------------|
|-----------------|---------------------|---------------------------------|


  PM----------------------------------------------------|
  E E E E E E E E    E E  E  E E  E E E   E E E E E E E E    E   E   E   E
|-----------------|------10--9-7--------|-----------------|--------------------|
|-7---7---8---8---|-10---10-10-7-10-8---|-7---7---8-7-----|-----<7>------------|
|-7---7---7---7---|--7----------------9-|-7---7---7---9-7-|-------------<7>----|
|---0---0---0---0-|----0----------------|---0---0---------|-<7>-----<7>--------|
|-----------------|---------------------|-----------------|--------------------|
|-----------------|---------------------|-----------------|--------------------|


    PM  PM  PM  PM                          PM  PM
  E E E E E E E E    E E  E  E E  E E E   E E E E E E E E   E E E E E E E
|-----------------|------10--9-7--------|---------------------------------|
|-7---7---8---8---|-10---10-10-7-10-8---|-7---7---8-7-------8-7-----------|
|-7---7---7---7---|--7----------------9-|-7---7---7---9-7-------9-7---6h9-|
|---0---0---0---0-|----0----------------|---0---0-------------------9-----|
|-----------------|---------------------|---------------------------------|
|-----------------|---------------------|---------------------------------|


   ~~~                                  ~
   E    E   E   E      E     E E E    E E
|------------------------------------------|
|------------------------------------------|
|-[7]--[6]---------------------------------|
|----------[7]-----------------------------|
|--------------[7]b9---7pb9r=9-9-9b10r7-9--|
|------------------------------------------|


  E E E E     E     E E     E     E E E    E E     E E E
|--------------------------------------------------------|
|-------------------7-8b10--8pb10r7-8------7-------------|
|-------7pb9r=9b11--------------------9b11---9pb11r======|
|--------------------------------------------------7S6S5-|
|-7-8S9--------------------------------------------------|
|--------------------------------------------------------|


      ~
  E E E
|-------|
|-------|
|-7-----|
|---5-4-|
|-------|
|-------|


    E  E  E  E  E  E  E  E  E  E  E  E  E  E  E  E  E  E  E  E  E  E  E  E  E  E  E  E  E  E  E
|-----10----10h14p10----10h14p10----10h14p10----10h15p10----10h15p10----10h14p10----10h12p10----|
|-/10----10----------10----------10----------10----------10----------10----------10----------10-|
|-----------------------------------------------------------------------------------------------|
|-----------------------------------------------------------------------------------------------|
|-----------------------------------------------------------------------------------------------|
|-----------------------------------------------------------------------------------------------|


   E  E  E  E  E  E      E  E     E
|-10h12p10-10-----------10-------10-|
|-------------10-13b15-----13b15----|
|-----------------------------------|
|-----------------------------------|
|-----------------------------------|
|-----------------------------------|


   E  E  E  E  E  E  E  E  E  E  E  E  E  E  E  E  E  E  E    E  E  E  E
|----------10----10----10----10----10-------10----10----10-|----10----10-|
|-14----10----------10----14----14----14-------10----------|-14----------|
|----14-------14-------------------------14----------14----|-------14----|
|----------------------------------------------------------|-------------|
|----------------------------------------------------------|-------------|
|----------------------------------------------------------|-------------|


   E  E  E  E  E  E  E  E  E  E  E  E  E  E  E  E  E  E  E  E  E  E  E  E  E  E  E  E  E  E  E  E  E
|----10-10----10----10----10----10----10----10----10----10----10----10----10----10----10----10----10---|
|----------------12----14----------------------------12----14----------------------------12----14------|
|----------12----------------14----------------12----------------14----------------12------------------|
|-14-------------------------------14----12----------------------------14----12------------------------|
|------------------------------------------------------------------------------------------------------|
|------------------------------------------------------------------------------------------------------|


                                                     ~~
   E  E  E  E  E  E  E  E  E  E  E  E  E       E  E  E
|-14p12p10----12p10----10------------------------------|
|----------14-------14----14-12-10----10b10.5----10----|
|----------------------------------12---------12----11-|
|------------------------------------------------------|
|------------------------------------------------------|
|------------------------------------------------------|


            ~~~~~
   E  E  E  E       E      E  E  E  E  E  E  E  E  E  E
|------------------17b19--17-15-14----14-17-15-15h17p15-|
|-------15-17b19-------------------15-------------------|
|-11S16-------------------------------------------------|
|-------------------------------------------------------|
|-------------------------------------------------------|
|-------------------------------------------------------|


                            ~~
   E  E  E     E   E  E  E  E
|----14------------------------|
|-17----17b19r=======15--------|
|-------------14S=12----12S11--|
|------------------------------|
|------------------------------|
|------------------------------|


  E E E E E E E E E E  E E E E E E E E E E E E E  E
|------------------------------------------------------|
|---------------7-8-9-10-9-8---7h8p7---7-8-7---7-10b12-|
|-----------7-9--------------9-------9-------9---------|
|-------7-9--------------------------------------------|
|-7h8h9------------------------------------------------|
|------------------------------------------------------|


                                 PM  PM  PM  PM
  E  E E  E E E E E E E E E    E E E E E E E E    E E  E  E E  E E E
|-7-10-9--------------------|------------------|------10--9-7---------|-|
|--------10-8---7-8p7-------|--7---7---8---8---|-10---10-10-7-10-8----|-|
|-------------9-------9-8-7-|--7---7---7---7---|--7----------------9--|-|
|---------------------------|----0---0---0---0-|----0-----------------|-|
|---------------------------|------------------|----------------------|-|
|---------------------------|------------------|----------------------|-|


    PM  PM
  E E E E E E E E  E   E   E   E   E
|--------------------------------------|
|-7---7---8-7-------------<7>----------|
|-7---7---7---9-7-----<7>-----<7>------|
|---0---0---------<7>-------------<7>--|
|--------------------------------------|
|--------------------------------------|


    PM  PM  PM  PM
  E E E E E E E E    E E  E  E E  E E E
|-----------------|------10--9-7--------|---|
|-7---7---8---8---|-10---10-10-7-10-8---|---|
|-7---7---7---7---|--7----------------9-|---|
|---0---0---0---0-|----0----------------|---|
|-----------------|---------------------|---|
|-----------------|---------------------|---|


    PM  PM      ~
  E E E E E E E E
|--------------------|
|-7---7---8-7---7----|
|-7---7---7---9-7----|
|---0---0-------7----|
|--------------------|
|--------------------|


Duration Legend
---------------
W - whole; H - half; Q - quarter; E - 8th; S - 16th; T - 32nd; X - 64th; a - acciaccatura
+ - note tied to previous; . - note dotted; .. - note double dotted
Uncapitalized letters represent notes that are staccato (1/2 duration)
Irregular groupings are notated above the duration line
Duration letters will always appear directly above the note/fret number it represents the
duration for.  Duration letters with no fret number below them represent rests.  Multi-
bar rests are notated in the form Wxn, where n is the number of bars to rest for.  Low
melody durations appear below the staff

Tablature Legend
----------------
 h   - hammer-on
 p   - pull-off
 b   - bend
 pb  - pre-bend
 r   - bend release (if no number after the r, then release immediately)
 /\  - slide into or out of (from/to "nowhere")
 s   - legato slide
 S   - shift slide
  - natural harmonic
[n]  - artificial harmonic
n(n) - tapped harmonic
 ~   - vibrato
 tr  - trill
 T   - tap
 TP  - trem. picking
 PM  - palm muting
\n/  - tremolo bar dip; n = amount to dip
 \n  - tremolo bar down
 n/  - tremolo bar up
/n\  - tremolo bar inverted dip
 =   - hold bend; also acts as connecting device for hammers/pulls
 <>  - volume swell (louder/softer)
 x   - on rhythm slash represents muted slash
 o   - on rhythm slash represents single note slash

Misc Legend
-----------
 |  - bar
||  - double bar
||o - repeat start
o|| - repeat end
*|  - double bar (ending)
 :  - bar (freetime)
 $  - Segno
 &  - Coda
Tempo markers -  = BPM(8/16=s8/s16), where s8 = swing 8ths, s16 = swing 16ths


***************************************************************************************
* Generated using Power Tab Editor by Brad Larsen - http://powertab.guitarnetwork.org *
***************************************************************************************
Tap to rate this tab
# A B C D E F G H I J K L M N O P Q R S T U V W X Y Z