Guitaretab - guitar tabs
Song name
# A B C D E F G H I J K L M N O P Q R S T U V W X Y Z

Johnny Hobo And The Freight Trains - Im So Punk I Hate Punk tab

Johnny Hobo - Iím So Punk I Hate Punk

------6--7--9-----6-7-4----|
--7---6--7--9--7--6-7-4----|
--7---4--5--7--7--4-5-2----|
--5------------5-----------|
---------------------------|
---------------------------|
[ Tab from: http://www.guitaretab.com/j/johnny-hobo-and-the-freight-trains/100261.html ]
---------6666-7777--9999------6666--7777-4444----|
--7777---6666-7777--9999-7777-6666--7777-4444----|
--7777---4444-5555--7777-7777-4444--5555-2222----|
--5555-------------------5555--------------------|
-------------------------------------------------|
-------------------------------------------------|
Related for Im So Punk I Hate Punk tab