Song name
# A B C D E F G H I J K L M N O P Q R S T U V W X Y Z

Johnny Hobo And The Freight Trains - Im So Punk I Hate Punk tab

-------------------------------------------------------------------------------
		Im so punk I hate punk - Johnny Hobo and The Freight Trains
-------------------------------------------------------------------------------
Tabbed by: Josh, The Shorts
Email: joshmjump@gmail.com

Tuning:standard

Chord progression: G B C D, G B C A
and for the majority of the song you strum each chord 4 times


I usually play it like this
e|-------------------------------------------------------------------------------------|
B|-------------------------------------------------------------------------------------|
G|-----4--5--7-----4--5--2-------------------------------------------------------------|
D|--5--4--5--7--5--4--5--2-------------------------------------------------------------|
A|--5--2--3--5--5--2--3--0-------------------------------------------------------------|
E|--3-----------3----------------------------------------------------------------------|

and that other part is kinda similar to this, its not exactly right but,
 it sounds close and i havent seen anyone tab it yet so its the best you got

something like this:
e---6----6--7-6---6--9--6--6-7-6----|
B-7---7-----------------------------|
G-----------------------------------|
D-----------------------------------|
A-----------------------------------|
E-----------------------------------|

after the last one
e----6--7--6------------------------------------------|
B-7---------------------------------------------------|
G-----------------------------------------------------|
D-----------------------------------------------------|
A-----------------------------------------------------|
E-----------------------------------------------------|
Tap to rate this tab
 
# A B C D E F G H I J K L M N O P Q R S T U V W X Y Z