Johnny Hobo And The Freight Trains - Politics Of Holy Shit I Just Cut My Hand Open On A Broken Bottle chords

Highlighted       Show chord diagrams
-----------------------------------------------------------
Pat The Bunny, Wingnut Dishwashers Union, Johnny Hobo, etc.
+++++++++++++++++++++++++++++++++++++++++++++++++++++++++++
Politics of Holy Shit I Just Cut My Hand on a Broken Bottle.
-----------------------------------------------------------

dont worry about geting the E string, its basicly just played on the ADGBe

C5 G5 D5 F5


    C5    G5    D5    F5
E----X-----3-----X-----1---|
A----3-----5-----5-----3---|
D----5-----5-----7-----3---|
G----5-----4-----7-----2---|
B----5-----3-----7-----1---|
e----3-----3-----5-----1---|

tabbed by FOPEDARMER.
Tap to rate this tab
 
# A B C D E F G H I J K L M N O P Q R S T U V W X Y Z