Song name
# A B C D E F G H I J K L M N O P Q R S T U V W X Y Z

Johnny Hobo And The Freight Trains - New Mexico Song tab

-------------------------------------------------------------------------------
                             New Mexico Song - Johnny Hobo
-------------------------------------------------------------------------------
Tabbed by: meeeeee
Email:jordenplayswow@gmail.com

Tuning: standard



e|-----------------------------------------------------------------------------------|
B|-----------------------------------------------------------------------------------|
G|--5--------7---9---10--------------------------------------------------------------|
D|--5---5----7---9---10--------------------------------------------------------------|
A|--3---5----5---7---8---------------------------------------------------------------|
E|------3----------------------------------------------------------------------------|
Chorus is 8 A string, then 8 E string, then 10 E string, then 8 a string then 8 E 
string, then 8, then 10, then 12, then 10, then 8 then 5 all on the A string, then 
back to the verse bridge / chorus
e|-------------------------------------------------------------|
B|-------------------------------------------------------------|
G|--10---------------------------------------------------------|
D|--10---------------------------------------------------------|
A|--8--------------8-------8-----10-----12------10-----8----5--|
E|--------8---10-------8---------------------------------------|



************************************

| /   slide up
| \   slide down
| h   hammer-on
| p   pull-off
| ~   vibrato
| +   harmonic
| x   Mute note
| b   Bend
| pb  Pre-bend
| br  Bend release
| pbr Pre-bend release
| brb Bend release bend

************************************
Tap to rate this tab
 
# A B C D E F G H I J K L M N O P Q R S T U V W X Y Z