Song name
# A B C D E F G H I J K L M N O P Q R S T U V W X Y Z

Johnny Hobo And The Freight Trains - Only Two Of My Best Friends Are Actual People tab

-------------------------------------------------------------------------------
Johnny Hobo and the Freight Trains - Only Two of My Best Friends Are Actual People
-------------------------------------------------------------------------------
Tabbed by: squintyjoefan
E-mail: squintyjoefan@hotmail.co.uk

Tuning: EADGBE (standard)

Song order

Intro
Verse
Prechorus
Choruse
Verse
Prechorus
Chorus
Verse
Prechorus
Bridge
Prechorus
End on A5

Intro

e|---------------------------------------------------------------------------|
B|---------------------------------------------------------------------------|
G|-------9-------6-------------99--------66----------------------------------|
D|---7---9---9---6-------77----99---99---66----------------------------------|
A|---7---7---9---4-------77----77---99---44----------------------------------|
E|---5-------7-----------55---------77---------------------------------------|
     A5  E5  B5  C#5     A5    E5   B5   C#5

Verse
     
e|---------------------------------------------------------------------------|
B|---------------------------------------------------------------------------|
G|---------------------------------------------------------------------------|
D|----7---------9------------------------------------------------------------|
A|----7---------9------------------------------------------------------------|
E|----5---------7------------------------------------------------------------|
      A5        B5   play each chord 5 times quickly


Pre-Chorus

e|---------------------------------------------------------------------------|
B|---------------------------------------------------------------------------|
G|--------------6------------------4-----------------------------------------|
D|----7----2----6------7-----2-----4-----------------------------------------|
A|----7----2----4------7-----2-----2-----------------------------------------|
E|----5----0-----------5-----0-----------------------------------------------|
      A5   E5   C#5    A5    E5    B5
      
chorus Riff

e|---------------------------------------------------------------------------|
B|--10-----12--14---10-----12--9---------------------------------------------|
G|------9---------------9----------------------------------------------------|
D|---------------------------------------------------------------------------|
A|---------------------------------------------------------------------------|
E|---------------------------------------------------------------------------|
A5  E5  B5  C#5   A5  E5  B5  G#5   are played over this chorus riff (see Bridge for chords)

Bridge Lead
e|--5----5-----7----7-----7-----5-----5-----4-----4------------5-------------|
B|----5-----5----5-----5-----5-----5-----5-----5-----5-----------------------|
G|---------------------------------------------------------------------------|
D|---------------------------------------------------------------------------|
A|---------------------------------------------------------------------------|
E|---------------------------------------------------------------------------|
  Play this bit twice                                         End on this note

Bridge Chords
e|---------------------------------------------------------------------------|
B|---------------------------------------------------------------------------|
G|-------9---------6--------9------------------------------------------------|
D|---7---9----9----6----7---9---9----6---------------------------------------|
A|---7---7----9----4----7---7---9----6---------------------------------------|
E|---5--------7---------5-------7----4---------------------------------------|

    A5   E5   B5   C#5  A5  E5  B5  G#5   


End song on A5


************************************

| /   slide up
| \   slide down
| h   hammer-on
| p   pull-off
| ~   vibrato
| +   harmonic
| x   Mute note
| b   Bend
| pb  Pre-bend
| br  Bend release
| pbr Pre-bend release
| brb Bend release bend

************************************
Tap to rate this tab
# A B C D E F G H I J K L M N O P Q R S T U V W X Y Z