Guitaretab - guitar tabs
Song name
# A B C D E F G H I J K L M N O P Q R S T U V W X Y Z

Johnny Hobo And The Freight Trains - Church Hymn For The Condemned tab

-------------------------------------------------------------------------------
        Church Hymn for the Condemned - Johnny Hobo and the Freight Trains
-------------------------------------------------------------------------------
Tabbed by: squintyjoefan
E-mail: squintyjoefan@hotmail.co.uk

Track 2 from the album "Anarchy Means I Hate You"

Tuning: EADGBe (Standard)

Song order 

Intro
Verse 
Chorus
Verse
Chorus
Ending Riff
Ending Chords



Intro

e|---------------------------------------------------------------------------|
B|---------------------------------------------------------------------------|
G|---------------------------------------999---------------------------------|
D|--4----7----999999----777777---4---7---999--999--777---999-----------------|
A|--4----7----999999----777777---4---7---777--999--777---999-----------------|
E|--2----5----777777----555555---2---5--------777--555---777-----------------|
    F#5  A5     B5        A5    F#5  A5  E5   B5    A5   B5

Verse Riff

e|---------------------------------------------------------------------------|
B|-----14----12--10-9-10-----------------------------10-9-10-----------------|
G|--11----9------------------------------------------------------------------|
D|---------------------------------------------------------------------------|
A|---------------------------------------------------------------------------|
E|---------------------------------------------------------------------------|
  Repeat this 4 times per verse                     Play this when the verse ends
When finished go immediately to the G11 note

Verse Chords

e|---------------------------------------------------------------------------|
B|---------------------------------------------------------------------------|
G|---------------------4-----------------------------------------------------|
D|--4-----7-----2------4-----------------------------------------------------|
A|--4-----7-----2------2-----------------------------------------------------|
E|--2-----5-----0------------------------------------------------------------|
   F#5    A5    E5     B5   (Play each around 8 times)


Chorus Riff                    Chorus End Riff
[ Tab from: http://www.guitaretab.com/j/johnny-hobo-and-the-freight-trains/353377.html ]
e|---------------------------------------------------------------------------|
B|-10---10--10-12-10-----------10-12-10----------10-12--12-10-10-------------|
G|----9----------------------------------------------------------------------|
D|---------------------------------------------------------------------------|
A|---------------------------------------------------------------------------|
E|---------------------------------------------------------------------------|
Repeat 8 times                 Repeat 3 times


Chorus Chords

e|---------------------------------------------------------------------------|
B|---------------------------------------------------------------------------|
G|---------9---------------7-------------------------------------------------|
D|--7------9-------4-------7-------------------------------------------------|
A|--7------7-------4-------5-------------------------------------------------|
E|--5--------------2---------------------------------------------------------|
   A5      E5     F#5      D5

Ending Riff

e|---------------------------------------------------------------------------|
B|--10--14--12--10--10--10---------------------------------------------------|
G|---------------------------------------------------------------------------|
D|---------------------------------------------------------------------------|
A|---------------------------------------------------------------------------|
E|---------------------------------------------------------------------------|

Ending Chords

e|---------------------------------------------------------------------------|
B|---------------------------------------------------------------------------|
G|---------------------------------------------------------------------------|
D|--4/------7-----7--7--7----------------------------------------------------|
A|--4/------7-----7--7--7----------------------------------------------------|
E|--2/------5-----5--5--5----------------------------------------------------|
   F#5     A5    A5 A5 A5
Slide between
F#5 and A5

************************************

| /   slide up
| \   slide down
| h   hammer-on
| p   pull-off
| ~   vibrato
| +   harmonic
| x   Mute note
| b   Bend
| pb  Pre-bend
| br  Bend release
| pbr Pre-bend release
| brb Bend release bend

************************************
Related for Church Hymn For The Condemned tab
Church Hymn For The Condemned chords by Johnny Hobo And The Freight Trains