Song name
# A B C D E F G H I J K L M N O P Q R S T U V W X Y Z

Johnny Hobo And The Freight Trains - Below Good And Evil tab

-------------------------------------------------------------------------------
           Below Good and Evil - Johnny Hobo and the Freight Trains
-------------------------------------------------------------------------------
Tabbed by: squintyjoefan
E-mail: squintyjoefan@hotmail.co.uk

Track 5 from the album "Anarchy Means I Hate You"

Tuning: Standard (EADGBe)

Verse x 4
Chorus x 2
Verse x 4
Chorus x 3
Outro



Riff (played with the verse)



e|---------------------------------------------------------------------------|
B|---10----10---10--12--10-----10----10----10---12--10-----------------------|
G|------9-------------------------9------------------------------------------|
D|---------------------------------------------------------------------------|
A|---------------------------------------------------------------------------|
E|---------------------------------------------------------------------------|


Verse Chords

e|---------------------------------------------------------------------------|
B|---------------------------------------------------------------------------|
G|-----------6----7----------------------------------------------------------|
D|--7---2----6----7----------------------------------------------------------|
A|--7---2----4----5----------------------------------------------------------|
E|--5---0--------------------------------------------------------------------|
    A5  E5   C#5  D5


Chorus Chords

e|---------------------------------------------------------------------------|
B|---------------------------------------------------------------------------|
G|------9----7----7----------------------------------------------------------|
D|--7---9----7----7----------------------------------------------------------|
A|--7---7----5----5----------------------------------------------------------|
E|--5------------------------------------------------------------------------|
    A5  E5   D5   D5


Outro Chords

e|---------------------------------------------------------------------------|
B|---------------------------------------------------------------------------|
G|------9----7----9----------------------------------------------------------|
D|--7---9----7----9-----7~~--------------------------------------------------|
A|--7---7----5----7-----7~~--------------------------------------------------|
E|--5-------------------5~~--------------------------------------------------|
   A5   E5  D5    E5    A5



************************************

| /   slide up
| \   slide down
| h   hammer-on
| p   pull-off
| ~   vibrato
| +   harmonic
| x   Mute note
| b   Bend
| pb  Pre-bend
| br  Bend release
| pbr Pre-bend release
| brb Bend release bend

************************************
Tap to rate this tab
 
# A B C D E F G H I J K L M N O P Q R S T U V W X Y Z