Song name
# A B C D E F G H I J K L M N O P Q R S T U V W X Y Z

Johnny Hobo And The Freight Trains - Im So Punk I Hate Punk tab

-------------------------------------------------------------------------------
        I'm So Punk I Hate Punk - Johnny Hobo and the Freight Trains
-------------------------------------------------------------------------------

Tabbed by: squintyjoefan
E-mail: squintyjoefan@hotmail.co.uk

Track 6 from "Anarchy Means I Hate You Demo"

Tuning:  Standard (EADGBe)

Song order

Intro
Verse + Riff (x4)
Pre Chorus (x2)
Chorus (x2)
Second Riff
Verse + Riff (x4)
Pre Chorus (x2)
Chorus (x2)
Bridge
Verse + Riff (x4)
Pre Chorus (x2)
Chorus (x2)


e|---------------------------------------------------------------------------|
B|---------------------------------------------------------------------------|
G|------3---4---6---------3----4---------------------------------------------|
D|--4---3---4---6-----4---3----4----6----------------------------------------|
A|--4---1---2---4-----4---1----2----6----------------------------------------|
E|--2-----------------2-------------4----------------------------------------|
   F#5 A#5  B5  C#5  F#5 A#5   B5  G#5

First time, play each chord once.
Second time, play each chord 4 times

Verse
[same chords as Intro]
Play each chord once

Verse Riff (each chord is played 4 times here)

e|---6-7-6---6-7-6---6-7-9---6-7-6-------------------------------------------|
B|---------------------------------------------------------------------------|
G|---------------------------------------------------------------------------|
D|---------------------------------------------------------------------------|
A|---------------------------------------------------------------------------|
E|---------------------------------------------------------------------------|

This riff is played 4 times in total

Pre-Chorus

e|---------------------------------------------------------------------------|
B|---------------------------------------------------------------------------|
G|---------------66-44-------------------------------------------------------|
D|---4--44--4----66-44----6-6--4-4-------------------------------------------|
A|---4--44--4----44-22----6-6--4-4-------------------------------------------|
E|---2--22--2-------------4-4--2-2-------------------------------------------|
        F#5     C#5  B5   G#5  F#5

Chorus ("I don't want to be associated with")

e|---------------------------------------------------------------------------|
B|---------------------------------------------------------------------------|
G|---6-----4-----6------9----------------------------------------------------|
D|---6-----4-----6------9----------------------------------------------------|
A|---4-----2-----4------7----------------------------------------------------|
E|---------------------------------------------------------------------------|
     C#5   B5    C#5    E5



Second Riff
(Intro chords are played over this riff)

e|-6-7-6-7-6-9-6-------6-9-6-9-6-7-6------6-7-6-7-6-9-6----------------------|
B|---------------------------------------------------------------------------|
G|---------------------------------------------------------------------------|
D|---------------------------------------------------------------------------|
A|---------------------------------------------------------------------------|
E|---------------------------------------------------------------------------|
  Play this 5 times                       Play this bit twice



Bridge

Rhythm guitar
e|---------------------------------------------------------------------------|
B|---------------------------------------------------------------------------|
G|---------3-----4-----------------------------------------------------------|
D|---4-----3-----4-----6-----------------------------------------------------|
A|---4-----1-----2-----6-----------------------------------------------------|
E|---2-----------------4-----------------------------------------------------|
    F#5    A#5   B5    G#5


Lead guitar riff

e|--9--9-7-6--7-6-4-4-6-7-6-4-7--6--4--2-------------------------------------|
B|---------------------------------------------------------------------------|
G|---------------------------------------------------------------------------|
D|---------------------------------------------------------------------------|
A|---------------------------------------------------------------------------|
E|---------------------------------------------------------------------------|


************************************

| /   slide up
| \   slide down
| h   hammer-on
| p   pull-off
| ~   vibrato
| +   harmonic
| x   Mute note
| b   Bend
| pb  Pre-bend
| br  Bend release
| pbr Pre-bend release
| brb Bend release bend

************************************
Tap to rate this tab
# A B C D E F G H I J K L M N O P Q R S T U V W X Y Z