Song name
# A B C D E F G H I J K L M N O P Q R S T U V W X Y Z

Johnny Horton - They Shined Up Rudolphs Nose tab

-------------------------------------------------------------------------------
                             They Shined Up Rudolph's Nose - Johnny Horton
-------------------------------------------------------------------------------
Tabbed by: Charlie Carver
Tuning: Standard

Intro (and can be played before chorous)
e|-----------|
B|-----------|
G|-----------|
D|--------1--|
A|--2--4-----|
E|-----------|

Solo
e|---------------------------------------------------------------------------|
B|-----------0--2--0--0-----------0-----------------0--0--0--2--0------------|
G|--------1--------------------1-----------------------------------2---------|
D|--2--2-----------------2--2--------4--------1--4--------------------4--2---|
A|--------------------------------------2--2---------------------------------|
E|---------------------------------------------------------------------------|

Ending
e|---------------------------------------------------------------------------|
B|-----------0--2--0--0--0---------------------------------------------------|
G|--------1-----------------2--1---------------------------------------------|
D|--2--2--------------------------4--2---------------------------------------|
A|---------------------------------------------------------------------------|
E|---------------------------------------------------------------------------|
Tap to rate this tab
# A B C D E F G H I J K L M N O P Q R S T U V W X Y Z