Song name
# A B C D E F G H I J K L M N O P Q R S T U V W X Y Z

Johnny Lang - Good Littel School Girl tab

----------------------------------------------------------------------------
             Good Morning Little School Girl - Johnny Lang
----------------------------------------------------------------------------

Tabbed by: Chris Lusk

Tuning:eBGDAE

Cords:

    D         D(10.)     G       G(3.)    A7    A7(5.)
e|-----2--------10---------3-------3-------3--------5| Played through the
B|-----3--------10---------0-------5-------2--------8| whole song
G|-----2--------11---------0-------4-------2--------6|
D|-----0--------12---------0-------5-------2--------7|
A|-----x--------12---------2-------5-------0--------7|
E|-----x--------10---------3-------3-------x--------5|

Riffes:() optional, sound good ether way
e|------------------------|-------------------------|-----------------------|
B|------------------------|-8-8-6-8-6-6-------------|-----------------------|
G|-7-7-5-7-5-5------------|-------------7-5---------|-10-10-8-10-8-8--------|
D|-------------7-5--------|------------------5-8-(5)|----------------9-7----|
A|-----------------5-8-(5)|-------------------------|--------------------7--|
E|------------------------|-------------------------|-----------------------|

e|------|-----------------------------------|------------------------------|
B|------|-----------------------------------|------------------------------|
G|------|-----------------------------------|-12-12-10-12-10-10------------|
D|------|-12-12-10-12-10-10-----------------|-------------------12-10------|
A|10-(7)|-------------------12-10-----------|-------------------------10-12|
E|------|-------------------------10-12-(13)|------------------------------|

e|-----------------------------------|
B|-----------------------------------|
G|-14-14-12-14-12-12-----------------|
D|-------------------14-12-----------|
A|-------------------------12-15-(12)|
E|-----------------------------------|

havent tabed the solo, heard it was based on the D pentanik scale though so good luck!
Tap to rate this tab
# A B C D E F G H I J K L M N O P Q R S T U V W X Y Z