Song name
# A B C D E F G H I J K L M N O P Q R S T U V W X Y Z

Johnny Mandel - Suicide Is Painless tab

|--------------------------|--------------------------|
|--------3--5--------------|--------3--2--------------|
|--------------------4-----|--------------------4-----|
|-----4-----------4-----4--|-----4-----------4-----4--|
|--2-----------2-----------|--2-----------2-----------|
|--------------------------|--------------------------|

|--------------------------|--------------------5-----|
|--------3--5--------------|--------3--2--------------|
|--------------------4-----|--------------------------|
|-----4-----------4-----4--|-----4-----------4--------|
|--2-----------2-----------|--2-----------2-----------|
|--------------------------|--------------------------|

|--3-----2--3-----2-----3--|-----2--------------------|
|--0-----0--------------2--|-----2-----5--------5-----|
|--------------------------|--------------------2-----|
|--------2-----------2-----|--------2-----------2-----|
|--------------------------|--0-----------------------|
|--3-----------0-----------|--------------0-----------|

|--2-----0--2-----0-----2--|-----0--------------2--0--|
|--3-----3--------------3--|-----------3--------3--0--|
|--------2-----------2--4--|--------------------4--0--|
|--0-----------------------|--------4-----------------|
|--------------0-----------|--2-----------2-----------|
|--------------------------|--------------------------|

|-----------0-----------0--|--------------------0-----|
|--------3--0-----3-----2--|-----3-----2--------2--3--|
|--------0--------0-----2--|--------------------2--2--|
|--------0-----------0-----|--------2-----------2-----|
|--------------------------|--------------------------|
|--3-----------3-----------|--0-----------0-----------|

|--------------------------|-----0-----2-----------0--|
|--------2--3-----2-----3--|-----3-----3--------0-----|
|--------2--------2--------|-----------------2--------|
|--0-----------0-----------|--------4-----------------|
|--------0-----------0-----|--2-----------2-----------|
|--------------------------|--------------------------|

|--------0-----------------|--------5-----|
|-----2-----2--4--4-----4--|--------------|
|--2-----------2--2-----2--|--------------|
|--------------4--4-----4--|--------------|
|--2-----------2-----------|--2-----------|
|--------------------------|--------------|

|--7-----5--7-----5-----7--|-----5--------------5-----|
|--0-----0--------------5--|-----5--------------5-----|
|--0-----0--------------6--|-----6--------------6-----|
|--------5-----------5-----|--------7-----------7-----|
|--------------------------|--0-----------0-----------|
|--0-----------0-----------|--------------------------|

|--7--------7-----5-----7--|--------------------------|
|--7----10--------------5--|----10-------------10-----|
|--7-----7--------------6--|-----7--------------7-----|
|--------9-----------5-----|--------9-----------9-----|
|--------------------------|--------------------------|
|--7-----------0-----------|--7-----------7-----------|

|--2-----5--7----10--------|-12----10-----------------|
|--0-----0-----------------|-12----------12----10-----|
|--0-----------------------|-12----------12----12-----|
|--------0-----------------|-------------------11-----|
|--------------------7-----|--------------0-----------|
|--3-----------0-----------|--0-----------------------|

|--7-----------------------|--------------------5-----|
|--7--------------7--------|--------3--2--------------|
|--7--------7--------------|--------------------------|
|--------9-----------9-----|-----4-----------4--------|
|--------------------------|--2-----------2-----------|
|--7-----------7-----------|--------------------------|

|--3-----2--3-----2-----3--|-----2--------------------|
|--0-----0--------------2--|-----2-----5--------5-----|
|--------------------------|--------------------2-----|
|--------2-----------2-----|--------2-----------2-----|
|--------------------------|--0-----------------------|
|--0-----------0-----------|--------------0-----------|

|--2-----0--2-----0-----2--|-----0--------------2--0--|
|--3-----3--------------3--|-----------3--------3--0--|
|--------2-----------2--4--|--------------------4--0--|
|--0-----------------------|--------4-----------------|
|--------------0-----------|--2-----------2-----------|
|--------------------------|--------------------------|

|-----------0-----------0--|--------------------0-----|
|--------3--0-----3-----2--|-----3-----2--------2--3--|
|--------0--------0-----2--|--------------------2--2--|
|--------0-----------0-----|--------2-----------2-----|
|--------------------------|--0-----------------------|
|--3-----------3-----------|--------------0-----------|

|--------------------------|-----0-----2-----------0--|
|--------2--3-----2-----3--|-----3-----3--------0-----|
|--------2--------2--------|-----------------2--------|
|--0-----------0-----------|--------4-----------------|
|--------0-----------0-----|--2-----------2-----------|
|--------------------------|--------------------------|

|--------0-----------------|--------5-----|
|-----2-----2--4--4-----4--|--------------|
|--2-----------2--2-----2--|--------------|
|--------------4--4-----4--|--------------|
|--2-----------2-----------|--2-----------|
|--------------------------|--------------|

|--7-----5--7-----5-----7--|-----5--------------5-----|
|--0-----0--------------5--|-----5--------------5-----|
|--0-----0--------------6--|-----6--------------6-----|
|--------5-----------5-----|--------7-----------7-----|
|--------------------------|--0-----------0-----------|
|--0-----------0-----------|--------------------------|

|--7--------7-----------7--|--------------------------|
|--7----10-------10-----7--|----10-------------10-----|
|--7-----7--------7--------|-----7--------------7-----|
|--------9-----------9-----|--------9-----------9-----|
|--------------------------|--------------------------|
|--7-----------7-----------|--7-----------7-----------|

|--2-----5--7----10--------|-12----10-----------------|
|--0-----0-----------------|-12----------12----10-----|
|--0-----------------------|-12----------12----12-----|
|--------0-----------------|-------------------11-----|
|--------------------7-----|--------------0-----------|
|--3-----------0-----------|--0-----------------------|

|--7--------------7--------|--2-----5--7----10--------|
|--7-----------------------|--0-----0-----------------|
|--7--------7--------------|--0-----------------------|
|--------9-----------9-----|--------0-----------------|
|--------------------------|--------------------7-----|
|--7-----------7-----------|--3-----------0-----------|

|-12----10-----------------|--7-----------------------|
|-12----------12----10-----|--7-----------------------|
|-12----------12----12-----|--7-----------------------|
|-------------------11-----|--------------------------|
|--------------0-----------|--------------------------|
|--0-----------------------|--7-----------------------|

Lyrics:

Through early morning fog I see 
visions of the things to be 
the pains that are withheld for me 
I realize and I can see... 

[chorus]: 

That suicide is painless 
It brings on many changes 
and I can take or leave it if I please. 

I try to find a way to make 
all our little joys relate 
without that ever-present hate 
but now I know that it's too late, and... 

[Chorus] 

The game of life is hard to play 
I'm gonna lose it anyway 
The losing card I'll someday lay 
so this is all I have to say. 

[Chorus] 

The only way to win is cheat 
And lay it down before I'm beat 
and to another give my seat 
for that's the only painless feat. 

[Chorus] 

MASH 
The sword of time will pierce our skins 
It doesn't hurt when it begins 
But as it works its way on in 
The pain grows stronger...watch it grin, but... 

[Chorus] 

A brave man once requested me 
to answer questions that are key 
'is it to be or not to be' 
and I replied 'oh why ask me?' 

'Cause suicide is painless 
it brings on many changes 
and I can take or leave it if I please. 
...and you can do the same thing if you choose.
Tap to rate this tab
 
# A B C D E F G H I J K L M N O P Q R S T U V W X Y Z