Song name
# A B C D E F G H I J K L M N O P Q R S T U V W X Y Z

Johnny Marr - The Messenger tab

e|--3--3-3--7--7-7--5--5-5--8----8--8----7---7---7---7-----5--5-5--8----8--8--8--|
B|--5--5-5--8--8-8--6--6-6/10---10-10----8---8---8---8-----6--6-6/10---10-10-10--|
G|-------------------------------------------------------------------------------|
D|-------------------------------------------------------------------------------|
A|-------------------------------------------------------------------------------|
E|-------------------------------------------------------------------------------|



|--------------------------------------------------------------------------------|
|--------------------------------------------------------------------------------|
|----------7---------------7---------7--------7-------7--------7-----------------|
|-----9-9----9---10-10-10----7-----7---7---10-----7-7---7--10----7---------------|
|--7-----------------------------------------------------------------------------|
|--------------------------------------------------------------------------------|
Tap to rate this tab
 
# A B C D E F G H I J K L M N O P Q R S T U V W X Y Z