Song name
# A B C D E F G H I J K L M N O P Q R S T U V W X Y Z

Johnny Marr - Upstarts tab

From his new album the messenger



    ----------------------------2-----------------2----------------2---------------|
    -----2--2--2--2-----------------3-----------------3----------------------------|
    -----2--2--2--2------------------------2----------------2----------------------|
    -----2--2--2--2----------------------------------------------------------------|
    -----0--0--0--0----------------------------------------------------------------|
    -------------------------------------------------------------------------------|


    --3---3---3---3--3--------2------------------2-------------------2--|
    --0---0---0---0--0---------------3------------------3---------------|
    --2---2---2---2--2-----------------------2-----------------2--------|
    --2---2---2---2--2--------------------------------------------------|
    --------------------------------------------------------------------|
    --------------------------------------------------------------------|
Tap to rate this tab
 
# A B C D E F G H I J K L M N O P Q R S T U V W X Y Z